Cifra Club

Aprenda

Metrópole

Legião Urbana

Tab de baixo: Principal
Intro / Riff 1:
G|---------------------------------------------------|
D|---------------------------------------------------|
A|--------------------------------3-3-3-2-2-2-2-2-2--|
E|--0-0-0-1-1-1-3-3-3-3-3-3-0-0-0--------------------|

Verso:
G|---------------------------------------------------|
D|---------------------------------------------------|
A|--------------5-5-5-5-5-5-------------3-3-3-3-3-3--|
E|--5-5-5-5-5-5-------------3-3-3-3-3-3--------------|
Composição de Renato Russo
Colaboração e revisão:
  • Adriano
1.665 exibições

0 comentários

Ver todos os comentários
00:00 / 00:00
outros vídeos desta música
repetir qualidade Automático
Outros vídeos desta música
00:00 / 00:00
Automático

Cifra Club Pro

Aproveite o Cifra Club com benefícios exclusivos e sem anúncios
Cifra Club Pro
Aproveite o Cifra Club com benefícios exclusivos e sem anúncios
OK