Cifra Club

Aprenda

Monte Castelo

Legião Urbana

Tab de baixo: Principal
G|---------------|
D|---------------|
A|-3-------------| (1x)
E|----0-1-----3--|

G|----5-----------|
D|----------------|
A|-3--------------| (3x)
E|--------0-1---3-|

G|-----------------|
D|----3--2---------|
A|-3--------5------| (1x)
E|-------------3---|

É um estar se preso...
G|-----------------------|
D|-----------------------|
A|-3-3--5-5-5-5----------|
E|--------------3-3-3-3-3|

G|-----------------------------|
D|-----------------------------|
A|-5-5-5-5-5-------------------| (3x)
E|------------3-3-3-3-3-3-3-3-3|

Estou acordado...
G|----------------|
D|----------------|
A|-------5--------| (4x)
E|-1---0-----3----|

G|---------------|
D|---------------|
A|-3-------------| (1x)
E|----0-1-----3--|

G|----5-----------|
D|----------------|
A|-3--------------| (3x)
E|--------0-1---3-|

G|-----------------------------|------------------------------
D|-----------------------------|------------------------------
A|-3---------------------------|-------------5-5-5-3-3-3-333-3
E|---3-3-3-3-3-3-3-3-3-3-3-3-3-|-1-1-1-0-0-0------------------
Composição de Renato Russo
Colaboração e revisão:
  • Cauê Coutinho
604 exibições

0 comentários

Ver todos os comentários
00:00 / 00:00
outros vídeos desta música
repetir qualidade Automático
Outros vídeos desta música
00:00 / 00:00
Automático

Cifra Club Pro

Aproveite o Cifra Club com benefícios exclusivos e sem anúncios
Cifra Club Pro
Aproveite o Cifra Club com benefícios exclusivos e sem anúncios
OK