O Livro Dos Dias

Legião Urbana

Composição de: Dado Villa-Lobos / Marcelo Bonfá / Renato Russo
tom: D
    E)
   Intro.: (Solo da Bateria, entre no 5° compasso) -> (D    Em    F#m    Bm    Em    A     G) 

       D
   Ausente o encanto antes cultivado
      Em
   Percebo o mecanismo indiferente
       F#m
   Que teima em resgatar sem confidência
       Bm
   A essência do delito então sagrado
          Em
   Meu coração não quer deixar
   Meu corpo descansar
      A
   E teu desejo inverso é velho amigo
    G                                   [Solo 1] - (D   Em   F#m   Bm   Em   A   G    D)
   Já que o tenho sempre a meu lado.
  
  [Solo 1]
   D                                    Em              F#m
E|--------------------------------------3-------------|--------------------------------------
B|-----12----10-----8------7------3-----5-----------5-|-----12--------10--------12--------10-
G|-9/11---------------------------------4--------4----|-11--------11--------11--------11-----
D|----------------------------------------------------|--------------------------------------
A|----------------------------------------------------|--------------------------------------
E|----------------------------------------------------|--------------------------------------

 Bm                                         Em                         A
-----10--------10------------10--------10-|--------------0---------0-|---------------------|
-12--------12------------12--------12-----|-----------------0------0-|---------3-----2-----|
------------------------------------------|----------0---------0---0-|-----2-----2-----2---|
------------------------------------------|-------2----------------2-|---2---------2-----2-|
------------------------------------------|----2-------------------2-|-0-------------------|
------------------------------------------|-0----------------------0-|---------------------|

  G                                 D         
-----3---------3------------3----------2----|-2--2--2--2--2--2--2--2--2--2--2--2--2--2-|
--------3---------3------------3----------3-|-3--3--3--3--3--3--3--3--3--3--3--3--3--3-|
--4---------4------------4----------2-------|-2--2--2--2--2--2--2--2--2--2--2--2--2--2-|
--------------------------------------------|-0--0--0--0--0--0--0--0--0--0--0--0--0--0-|
--------------------------------------------|------------------------------------------|
--------------------------------------------|------------------------------------------|

   G                        A
   Hoje estão aceitas pelo nome
       D
   O que perfeito entregas mas é tarde
   C
   Só daria certo aos dois que tentam
     Em
   Se ainda embriagado pela fome
     A 
   Exatos teu perdão e tua idade
        G                                [Solo 2] - (D   Em   F#m   Bm   Em   A   G    D)
   O indulto a ti como benção.

   [Solo 2]
   D                                  Em        F#m
E|------------------------------------3-----0-|----------------------------------------------
B|-----12----10-----8------7-----3----5-----0-|-----12--------10--------12--------10-------12
G|-9/11-------------------------------4-----0-|-11--------11--------11--------11-------11----
D|------------------------------------------2-|----------------------------------------------
A|------------------------------------------2-|----------------------------------------------
E|------------------------------------------0-|----------------------------------------------

 Bm                                    Em   A                          G
--10-------------10-----------------|--0--|-------------------------|----3-------3-------3-------3----|
-------12-----------------12--------|--0--|-------------2---------3-|-------3-------3-------3-------3-|
------------11------------------11--|--0--|-------2-----------------|-4-------------------------------|
------------------------------------|--2--|----2--------------------|---------------------------------|
------------------------------------|--2--|-0-----------------------|---------------------------------|
------------------------------------|--0--|-------------------------|---------------------------------|
                                                                  (1 de D p/ E)
     E
   Não esconda tristeza de mim
        F#m
   Todos se afastam quando o mundo está errado
           G#m
   Quando o que temos é um catálogo de erros
          C#m
   Quando precisamos de carinho,
   Força e cuidado
   F#m
   Este é o livro das flores
   B
   Este é o livro do destino
     A
   Este é o livro de nossos dias
     E 
   Este é o dias de nossos amores.

 [Guitarra Final]
   E
E|-----12-------11---------9--------7-|4
B|------------------------------------|v
G|-9---------9---------9--------9-----|e
D|------------------------------------|z
A|------------------------------------|e
E|------------------------------------|s
Página 1 / 1

Letras e título
Acordes e artista

resetar configurações
OK