Enviar cifraEntrar

O Mundo Anda Tão Complicado

Legião Urbana

Cifra: Principal
exibições 386.734
Tom: C
(intro) C Dm G Dm G F

(riff 1)

E|-------------------------|-----------------------------3-------|
B|---1----1----1----1------|------6------5----------3------3-----|
G|-0----0----0----0----0---|---------------------4-----4---------| (2x)
D|-------------------------|---7-------5-------------------------|
A|-------------------------|-------------------------------------|
E|-------------------------|-------------------------------------|


E|------------------------------------------------0--------------|
B|----1-----1---------1--------1----------------1----------------|
G|-2-----2---------2--------2----------------0-------------------|
D|--------------3--------2---------0------2----------------------|
A|-------------------------------------3-------------------------|
E|---------------------------------------------------------------|


(riff 1)
           C
 gosto de ver você dormindo
            Dm7                  G
 que nem criança com a boca aberta
       Dm7                G
 o telefone chega sexta-feira
          F
 aperto o passo por causa da garoa
      C
 me empresta um par de meias
         Dm7                   G
 a gente chega na sessão das dez
      Dm7                 G
 hoje eu acordo ao meio-dia
    F              C
 amanhã é a sua vez

(riff 2)
                                           (3x)                              (2x)

E|-10---8-8--7--5-5-5-5---10---8-8--7--8-8-8-8-|---------------------------------|
B|-12---8-8--8--6-6-6-6---12---8-8--8--8-8-8-8-|-5--5-5--3-3-3-3--3--3-3--1-1-1-1|
G|-12---7-7--7--5-5-5-5---12---7-7--7--7-7-7-7-|-5--5-5--2-2-2-2--0--0-0--0-0-0-0| 
D|---------------------------------------------|---------------------------------|
A|---------------------------------------------|---------------------------------|
E|---------------------------------------------|---------------------------------|


(riff 2)
       F           G       C
 Vem cá, meu bem, que é bom lhe ver
         F              G
 O mundo anda tão complicado
             Am          Dm          G C
 Que hoje eu quero fazer tudo por você 

(riff 1)
             C
 temos que consertar o despertador
       Dm7                 G
 e separar todas as ferramentas
     Dm7               G
 a mudança grande chegou
         F                           C
 com o fogão e a geladeira e a televisão
                          Dm7
 não precisamos dormir no chão
            G         Dm7              G
 até que é bom, mas a cama chegou na terça
      F                  C
 e na quinta chegou o som

(riff 2)
  C     Dm        G              C
 Sempre faço mil coisas ao mesmo tempo
             Dm           G              C
 e até que é fácil acostumar-se com meu jeito
                       Dm
 agora que temos nossa casa
     G                   C
 é a chave que sempre esqueço

(riff 1)
         C
 vamos chamar nossos amigos
         Dm7           G
 a gente faz uma feijoada
   Dm7                   G
 esquece um pouco do trabalho
    F
 e fica de bate-papo
           C
 temos a semana inteira pela frente
         Dm7                  G
 você me conta como foi seu dia
           Dm7                 G
 e a gente diz um p'ro outro:
                   F            C
 - estou com sono, vamos dormir!

(riff 2)
      F           G       C
 Vem cá, meu bem, que é bom lhe ver
         F              G
 O mundo anda tão complicado
             Am          Dm          G C
 Que hoje eu quero fazer tudo por você 

(riff 4)

      C                       Dm         G             Dm         G
E|---8----8----8----8---------------------3-----3------------------3-----3---|
B|-8----8----8----8----8-----6----5-----3-----3-------6----5-----3-----3-----|
G|------------------------------------4-----4------------------4-----4-------|
D|-------------------------7----5-------------------7----5-------------------|
A|---------------------------------------------------------------------------|
E|---------------------------------------------------------------------------|


      C                         C
E|-------------------------------------------------------0----|
B|---1----1----1----1---------------1--------0---------1------|
G|-0----0----0----0----0---------2--------2----------0--------|
D|----------------------------3--------2-----------2----------|
A|-----------------------------------------------3------------|
E|-----------------------------------------------------------|


(riff 4)
          C
 quero ouvir uma canção de amor
          Dm7              G
 que fale da minha situação
            Dm7                      G
 de quem deixou a segurança de seu mundo
      F
 por amor
      C
 por amor
  • 1
  • 2
  • 3
  • 4
  • 5
  • 6
  • 7
  • 8
  • 9
  • 10
  • 11
  • 12
    Acordes para:
      Composição: Dado Villa-Lobos / Renato RussoColaboração e revisão:

      0 comentários

        mostrar mais comentários

        Conseguiu tocar?

        39tocaram0ainda não

        Grave um vídeo tocando O Mundo Anda Tão Complicado e mande pra gente!

        00:00 / 00:00
        outros vídeos desta música
        repetirqualidadeautomática
        • automática
        Outro vídeos desta música
          00:00 / 00:00
          automática
          • automática
          Acordes para:violão e guitarra
          dificuldadeexibiçõescontribuições
          fecharplay/pause subir/descer velocidade
            acordes
            fechar
            OK
            Feedback