Cifra Club

Aprenda

O Reggae

Legião Urbana

Tab de baixo: Principal
Tema;   introdução Am Dm7 Em7  Am Dm7 Em7

G---2-2-------------------------------------|
D-2----------------------0-3-2--------------|
A--------------0--0-0-3-0-------------------|
E----------------3--------------0-----------|

G|------------------------------------------|
D|---7-7---------------------0-3-2----------|
A|-7---------------------3--0---------------|
E|------5--3-5-5-------------------0--------|


parte II
   "cresci..."                                  
G---------------4-----------------------------|
D------------1-4---2--------------------------|
A---2-3--2-----------5-3-2--------------------|
E-1----1------------------5-3-1-0-------------|

"NADA ERA COMO EU IMAGINAVA..."
G|--------------------------------------------|
D|-------------10-----------------------------|
A|---2--3----6-10------7----------8-7---------|
E|-1------1--7----------10-8-7-------1-0------|
tema 6x

parte II (sem a letra)

tema 4x

parte II

tema 7x
Composição de Renato Russo
Colaboração e revisão:
  • Aldair Soares
  • Walter Rebouças
26.492 exibições

0 comentários

Ver todos os comentários
00:00 / 00:00
outros vídeos desta música
repetir qualidade Automático
Outros vídeos desta música
00:00 / 00:00
Automático

Cifra Club Pro

Aproveite o Cifra Club com benefícios exclusivos e sem anúncios
Cifra Club Pro
Aproveite o Cifra Club com benefícios exclusivos e sem anúncios
OK