Cifra Club

Aprenda

Os Anjos

Legião Urbana

Tab de baixo: Principal
intro 

G-------------------------------------------------------------------------|
D-------------------------------------------------------------------------|
A-------5------5------5------5--------------------------------------------|
E---3-3----3-3----3-3----3-3----------------------------------------------|

Hoje não dá...não sei mais o que dizer e nem o que pensar.

G-------------------------------------------------------------------------|
D-------------------------------------------------------------------------|
A---5---------5--------0----------0---------------------------0--5-------5|
E------5-5-5-----5-5-5-----0-0-0-----0-0-0----3--3-2---2-0--0------5-5-5--|

Pegue duas medidas de estupidez, junte trinta e quatro partes de mentira...

G-------------------------------------------------------------------------|
D-------------------------------------------------------------------------|
A-------------------5--5-4---4-2---2-0------------------------------------|
E----3-3-3--5—5-5---------------------------------------------------------|

Só nos sobrou do amor a falta que ficou.

G-------------------------------------------------------------------------|
D-------------------------------------------------------------------------|
A---5--5-4---4-2---2-0---0--------------5-5------3-5----------------------|
E--------------------------3--3-2--2-0-------3-5--------------------------|


_______________________________________________________
Contribuição: Renato Pandur(renato.pandur@tvfronteira.com.br)
Composição de Dado Villa-Lobos / Renato Russo
7.828 exibições

0 comentários

Ver todos os comentários
00:00 / 00:00
outros vídeos desta música
repetir qualidade Automático
Outros vídeos desta música
00:00 / 00:00
Automático

Cifra Club Pro

Aproveite o Cifra Club com benefícios exclusivos e sem anúncios
Cifra Club Pro
Aproveite o Cifra Club com benefícios exclusivos e sem anúncios
OK