Cifra Club

Pais e Filhos

Legião Urbana

Cifra: Principal (violão e guitarra)
exibições 6.739.322
Tom: G
[Intro]

[Dedilhado Intro e Primeira Parte]

E|--------------8-----5---7------7----------|
B|-1--3--5----------------------------------|
G|---------0-------0----0------0---0--------|
D|-----------0--------4------0--------------|
A|-0--2--3----------------------------------|
E|------------------------------------------|

[Primeira Parte]

Estátuas e cofres
E paredes pintadas
Ninguém sabe
O que aconteceu

Ela se jogou da janela
Do quinto andar
Nada é fácil de entender

[Segunda Parte]

   F9           Em            C          
E|-3----3---3---3----3---3----0--0--0-------|
B|-1--1---1---1-0--0---0---0--1-1--1--1-----|
G|-2------------0-------------0-------------|
D|-3------------2-------------2-------------|
A|----------------------------3-------------|
E|------------------------------------------|

   Bm7         Am7         Am7
E|-2---2---2---3---3---3---3---3---3--------|
B|-3-3---3---3-1-1---1---1-1-1---1---1------|
G|-4-----------0-----------0----------------|
D|-4-----------2-----------2----------------|
A|-2-----------0-----------0----------------|
E|------------------------------------------|
 
   D           D
E|-5---5---5---5---5---5--------------------|
B|-3-3---3---3-3-3---3---3------------------|
G|-2-----------2----------------------------|
D|-0-----------0----------------------------|
A|------------------------------------------|
E|------------------------------------------|

F9         Em  C
   Dorme agora
Bm       Am7
Uhmhumm!
                 D
É só o vento lá fora

[Terceira Parte]
 
C        D     G
  Quero colo, vou fugir de casa
 C        D        G
Posso dormir aqui com vocês
   C  D           G
Estou   com medo tive um pesadelo
 C    D          G
Só vou voltar depois das três

( C  D )

[Quarta Parte]

   F9           Em            C          
E|-3----3---3---3----3---3----0--0--0-------|
B|-1--1---1---1-0--0---0---0--1-1--1--1-----|
G|-2------------0-------------0-------------|
D|-3------------2-------------2-------------|
A|----------------------------3-------------|
E|------------------------------------------|

   Bm7         Am7         Am7
E|-2---2---2---3---3---3---3---3---3--------|
B|-3-3---3---3-1-1---1---1-1-1---1---1------|
G|-4-----------0-----------0----------------|
D|-4-----------2-----------2----------------|
A|-2-----------0-----------0----------------|
E|------------------------------------------|
 
   D           D
E|-5---5---5---5---5---5--------------------|
B|-3-3---3---3-3-3---3---3------------------|
G|-2-----------2----------------------------|
D|-0-----------0----------------------------|
A|------------------------------------------|
E|------------------------------------------|

F9     Em           C
   Meu filho vai ter
         Bm
Nome de santo
Am7
Uhhmm
                 D
Quero o nome mais bonito

[Refrão]

      G        C
É preciso amar   as pessoas
      Em                  C
Como se não houvesse amanhã
            G         C           Em
Por que se você parar   pra pensar
                C  G
Na verdade não há

       G
Me diz,  por que que o céu é azul
Explica a grande fúria do mundo
São meus filhos que tomam conta de mim
Eu moro com a minha mãe mas meu pai vem me visitar
Eu moro na rua não tenho ninguém
Eu moro em qualquer lugar
Já morei em tanta casa que nem me lembro mais
                C
Eu moro com os meus pais

[Refrão]

      G        C
É preciso amar   as pessoas
      Em                  C
Como se não houvesse amanhã
            G         C           Em
Por que se você parar   pra pensar
                C  G
Na verdade não há

 G                  C
Sou uma gota d'água
 Em                 C
Sou um grão de areia
         G
Você me diz que seus pais
       C
Não entendem
       Em                  C
Mas você não entende seus pais

      G
Você culpa seus pais por tudo
Isso é absurdo
São crianças como você
O que você vai ser
Quando você crescer?

[Dedilhado - Solo Final]

E|-------8---------10-------------7-7/-10--12-10-----|
B|---------8----------10--------8---7/-10------------|
G|-7-7/9-----9-9/11------11\7-7-----7/-10------------|
D|---------------------------------------------------|
A|---------------------------------------------------|
E|---------------------------------------------------|
Acordes para:

    0 comentários

    mostrar mais comentários

    Conseguiu tocar?

    732 tocaram 60 ainda não

    Grave um vídeo tocando Pais e Filhos e mande pra gente!

    00:00 / 00:00
    outros vídeos desta música
    repetir qualidade Automático
    Outros vídeos desta música
    00:00 / 00:00
    Automático
    Capítulos
    • Início
    • Dedilhado da introdução
    • Ensinando dedilhado da introdução
    • Dedilhado da primeira parte
    • Tocando dedilhado da primeira parte
    • Acordes da segunda parte
    • Tocando segunda parte
    • Ensinando dedilhado da segunda parte devagar
    • Terceira parte
    • Acordes da terceira parte (opção 2)
    • Tocando terceira parte (opção 2)
    • Ensinando o rítmo da terceira parte devagar
    • Tocando dedilhado da quarta parte
    • Tocando dedilhado da quarta parte
    • Acordes do refrão
    • Tocando refrão
    • Ensinando rítmo do refrão devagar
    • Acordes da quinta parte
    • Tocando quinta parte
    • Acordes da sexta parte
    • Dedilhado do solo final
    • Ensinando o dedilhado do solo final devagar
    • Encerramento
    OK