Cifra Club

Aprenda

Perdidos No Espaço

Legião Urbana

Tab de baixo: Principal
Intro: Em  Bm  Am

    Em              Bm            Am
G|-----------------------------------------------------------| 2x
D|----------------------------7-7-5-7--5-7-5--7-7-5-7--5-7-5-|
A|7-7-5-7--5-7-5---------------------------------------------|
E|--------------7-7-5-7--5-7-5-------------------------------|

   Em                B
Escrevi pra você e você não respondeu
    A
Também não respondi quando você me escreveu
    Em                     B
Anotei seu telefone num pedaço de papel
        A
E calculei seu ascendente no recibo do aluguel

(Durante os versos acima, notas entre parenteses são pra fazer pizzicato repetitivo)

    Em    Bm   Am   Em   Bm   Am

G|------------------------------| 2x
D|---------5-(7)------------(7)-|
A|-(7)-5--------5-(7)-5---------|
E|------(7)------------(7)-5----|

Em    B          A    D
Esqueci seu sobrenome

    Em              Bm            Am             D

G|--------------------------------------------7-7-5-7--5-7-5-|
D|----------------------------7-7-5-7--5-7-5-----------------|
A|7-7-5-7--5-7-5---------------------------------------------|
E|--------------7-7-5-7--5-7-5-------------------------------|

 C        F           E
  mas me lembro de você

    C   F   E

G|--(5)-----------|
D|-----(3)-(2)/5--|
A|----------------|
E|----------------|

       D     C#m        F#m     E
E a rotina crescia como planta
       D     C#m       F#m   E
E engulia metade do caminho
       D            C#m  F#m           E
E a mudança levou tempo por ser tão veloz

    D   C#m F#m  E

G|-------------------| 3x
D|---------(4)-(2)/--|
A|-(5)-(4)-----------|
E|-------------------|

  D         C#m       Bm
Enquanto estávamos a salvo

G|-------------|
D|-------------|
A|-(5)-(4)-(2)-|
E|-------------|

*pausa*

  Bm        D      F#m
Ficamos suspensos
    Bm         D    F#m
Perdidos no espaço
  Bm        D      F#m
Ficamos suspensos
    Bm         D    F#m  E
Perdidos no espaço

G|------------| 4x
D|--------(4)-|
A|-(2)/(5)----|
E|------------|

(Repete a musica toda ) 
Composição de Dado Villa-Lobos / Marcelo Bonfá / Renato Russo
Colaboração e revisão:
  • Yuri Bolseiro
721 exibições

0 comentários

Mostrar mais comentários

Conseguiu tocar?

0 Tocaram 0 Ainda não

Grave um vídeo tocando Perdidos No Espaço e mande pra gente!

00:00 / 00:00
outros vídeos desta música
repetir qualidade Automático
Outros vídeos desta música
00:00 / 00:00
Automático

Cifra Club Pro

Aproveite o Cifra Club com benefícios exclusivos e sem anúncios
Cifra Club Pro
Aproveite o Cifra Club com benefícios exclusivos e sem anúncios
OK