Cifra Club

Perfeição

Legião Urbana

Tab de baixo: Principal
[Intro]

G|-----------------------------------------------------------| 
D|-----------------------------------------------------------|
A|-3--3-3-3--3-3-3-3-1--1-1-1--------------------------------| (4x)
E|----------------------------3--3-3-3-----------------------|

[Primeira Parte]

G|-----------------------------------------------------------| 
D|-----------------------------------------------------------|
A|-3--3-3-3--3-3-3-3-1--1-1-1--------------------------------| (2x)
E|----------------------------3--3-3-3-----------------------|

[Segunda Parte]

G|-------------------------------------------------------------|  
D|-------------------------------------------------------------|
A|-5--5-5-5--5-5--5-5--5--5-5-5--5-5--5-5--8--8-8-8--8-8--8-8--|
E|-------------------------------------------------------------|

G|-----------------------------|  
D|-----------------------------|
A|-3--3-3-3--3-3--3-3----------|
E|-----------------------------|

G|------------------------------------------------------------|  
D|------------------------------------------------------------|
A|-5--5-5-5--5-5--5-5--5--5-5-5--5-5--5-5--8--8-8-8--8-8--8-8-|
E|------------------------------------------------------------|

G|-----------------------------|  
D|-----------------------------|
A|-10--10-10-10--10-10--10-10--|
E|-----------------------------|

[Primeira Parte]

G|-----------------------------------------------------------| 
D|-----------------------------------------------------------|
A|-3--3-3-3--3-3-3-3-1--1-1-1--------------------------------| (4x)
E|----------------------------3--3-3-3-----------------------|

[Terceira Parte]

G|-------------------------------------------------------|  
D|-------------------------------------------------------|
A|-------------------------------------------------------| (4x)
E|-1--1-1--1-1-1-1--1--1-1--4-4-4-4----------------------|

[Quarta Parte - 2x]

G|-------------------------------------------------------|  
D|-------------------------------------------------------|
A|-3--3-3--3--3-3-3--------------------------------------|
E|-------------------3--3-3--3--3-3-3--------------------|

G|-------------------------------------------------------|  
D|-------------------------------------------------------|
A|-5--5-5--5--5-5-5--------------------------------------|
E|-------------------5--5-5--5--5-5-5--------------------|

[Quinta Parte]

G|-------------------------------------------------------|  
D|-------------------------------------------------------|
A|-------------------------------------------------------|
E|-3-1--1-1--1-1-1-1--1--1-1--1-1-1-1--3--3-3--3-3-3-3---|

[Sexta Parte - 2x]

G|-------------------------------------------------------|  
D|-------------------------------------------------------|
A|-3--3-3--3--3-3-3--------------------------------------|
E|-------------------3--3-3--3--3-3-3--------------------|

G|-------------------------------------------------------|  
D|-------------------------------------------------------|
A|-5--5-5--5--5-5-5--12--12-12--12-12-12--10-10-10-10-10-|
E|-------------------------------------------------------|

[Sétima Parte]

G|-------------------------------------------------------|  
D|-------------------------------------------------------|
A|-8--8-8-8--8--8-8-8--13--13-13-13--13--13-13-13--------|
E|-------------------------------------------------------|

G|-------------------------------------------------------|  
D|-------------------------------------------------------|
A|-8--8-8-8--8--8-8-8--10--10-10-10--10--10-10-10--------|
E|-------------------------------------------------------|

[Oitava Parte - 6x]

G|-------------------------------------------------------------|  
D|-------------------------------------------------------------|
A|-3--3-3-3-3-3-3-3-3-3-3-3-3--5--5-5-5-5-5-5-5-5-5-5-5--------|
E|-------------------------------------------------------------|

G|-------------------------------------------------------------|  
D|-------------------------------------------------------------|
A|-7--7-7-7-7-7-7-7-7-7-7-7-7--8--8-8-8-10--10-10-10-10-10-10--|
E|-------------------------------------------------------------|

[Nona Parte - 2x]

G|-------------------------------------------------------------|  
D|-------------------------------------------------------------|
A|-3--3-3-3-3-3-3-3-3-3-3-3-3--5--5-5-5-5-5-5-5-5-5-5-5--------|
E|-------------------------------------------------------------|

G|-------------------------------------------------------------|  
D|-----------------------------8-8-8-8-8-5-5-5-5-5-------------|
A|-7--7-7-7-7-7-7-7-7-7-7-7-7----------------------------------|
E|-------------------------------------------------------------|
00:00 / 00:00
Outros vídeos desta música
Repetir
Outros vídeos desta música
Composição de Dado Villa-Lobos / Marcelo Bonfá / Renato Russo
Colaboração e revisão:
  • Júlio Castilho
50 exibições

0 comentários

Ver todos os comentários
00:00 / 00:00

Cifra Club Pro

Aproveite o Cifra Club com benefícios exclusivos e sem anúncios
Cifra Club Pro
Aproveite o Cifra Club com benefícios exclusivos e sem anúncios
OK