Cifra Club

Aprenda

Petróleo do Futuro

Legião Urbana

Tab de baixo: Principal
INTRO :
G|---------------------------------------------------------------------------------------------------------------|
D|---------------------------------------------------------------------------------------------------------------|
A|---------------------------------------------------------------------------------------------------------------|
E|3/15----3-3-3-3-3-3-3-3---1-1-1-1-1-1-1-1-----3-3-3-3-3-3-3-3--1-1-1-1-1-1-1-1----------------|
OBS: ESTE SLIDE E LENTO ENTRA DEPOIS DA GUITARRA E O RESTO SÓ QUANDO ENTRAR A BATERIA
VERSO: 2X
AH, SE EU SOUBESSE LHE DIZER....
G|--------------------------------------------------------------------------------------------------------------------------------------------|
D|--------------------------------------------------------------------------------------------------------------------------------------------|
A|-------------------------------------------------------------5-5-5-5-5-5-3-3-3-3-3-3--------------------------------------------------|
E|3-3-3-3-3-3-3-3--1-1-1-1-1-1-1-1--3-3-3-3-3-3-3-3------------------------------1-1-1-1-1-1-1---0-0-0-0-0-0-3-3-3-3-3-3-|

RIFF: 
FILÓSOFOS......
G|-----------------------------------------------------------------------------------|
D|-----------------------------------------------------------------------------------|
A|3-3--5-5--2-2--------3-3--5-5--2-2--------8-10-----5-7---1-3---3-5------|
E|-----------------3-3---------------------3-3-------------------------------------|

REPETE O VERSO 2X
REPETE O RIFF:
SOU BRASILEIRO....
SOLO:
G|------------------------------------------------------------------------------------------------------------------------------------------|
D|------------------------------------------------------------------------------------------------------------------------------------------|
A|-----------------------------------------5-5-5-5-5-5-5-5--3-3-3-3-3-3-3-3---------------------------------------------------------|
E|1-1-1-1-1-1-1-1--3-3-3-3-3-3-3-3------------------------------------------1-1-1-1-1-1-1-1--0-0-0-0-0-0-0-0--3-3-3-3-3-3-|
REPETE O VERSO 
REPETE O RIFF 
FILÓSOFOS.....
SOLO FINAL
G|------------------------------------------------------------------------------------------------------------|
D|------------------------------------------------------------------------------------------------------------|
A|-----------------------------------------------------------------------------------------------------------|
E|3-3-3-3-3-3-3-3---1-1-1-1-1-1-1-1--3-3-3-3-3-3-3-3--1-1-1-1-1-1-1-1---3-3-3-3-3-3-3-3---|

VALEU GALERA VIVA AO LEGIÃO URBANA 
FORÇA SEMPRE EEEEEEEEEEEEEEEEEEEEEEEEEEEEEEEEEEHHHHHHHHHHHHHHEHEHEHEH



_______________________________________________________
Contribuição: Adson Ricardo(handhell@bol.com.br)
Composição de Dado Villa-Lobos / Renato Russo
6.542 exibições

0 comentários

Mostrar mais comentários

Conseguiu tocar?

0 Tocaram 0 Ainda não

Grave um vídeo tocando Petróleo do Futuro e mande pra gente!

00:00 / 00:00
outros vídeos desta música
repetir qualidade Automático
Outros vídeos desta música
00:00 / 00:00
Automático

Cifra Club Pro

Aproveite o Cifra Club com benefícios exclusivos e sem anúncios
Cifra Club Pro
Aproveite o Cifra Club com benefícios exclusivos e sem anúncios
OK