Cifra Club

Aprenda

Quase Sem Querer

Legião Urbana

Tab de baixo: Principal
G|--------------------------|
D|--------------------------|
A|--------------------------|
E|-0h3--3--0h3--3-----------|

G|-----------------------------------|
D|-5-5-5---5-5---5-5-----------------|
A|-------5-----5-----3-3-3-3h5-5-5-5-|
E|-----------------------------------|

Tenho andado...
G|----------------------------------------|
D|----------------------------------------|
A|---------------------3-3-3-3-3-5-5-5-5-5|
E|-3-3-3-3-3-5-5-5-5-5--------------------|

Quantas chances...                         Quando o que eu...
G|----------------------------------------|----------------------
D|----------------------------------------|----------------------
A|-3-0-3-0-3-5-5-5-0-3-3-3-3h5-5-5-5------|---------------2-2-2-2
E|----------------------------------------|-3-3-2-0-0-0-0--------

era provar...
G|----------------------------------------|
D|----------------------------------------|
A|-0-0-0-0-0-0(4x)-5-5-5-5-5-5(4x)--------|
E|----------------------------------------|

repete tudo até

Já não me preocupo...
G|---------------------------------------------|
D|---------------------------------------------|
A|---------2-3-2-3-2-3-2---------2-3-2-3-2-3-2-|
E|-1-1-1-1---------------3-3-3-3---------------|

Final
G|-------5-4---7-----------------------------|
D|-5---------7-----5-------------------------|
A|-------------------------------------------|
E|---------------3---------------------------|
Composição de Dado Villa-Lobos / Renato Russo
Colaboração e revisão:
  • Cauê Coutinho
3.486 exibições

0 comentários

Ver todos os comentários
00:00 / 00:00
outros vídeos desta música
repetir qualidade Automático
Outros vídeos desta música
00:00 / 00:00
Automático

Cifra Club Pro

Aproveite o Cifra Club com benefícios exclusivos e sem anúncios
Cifra Club Pro
Aproveite o Cifra Club com benefícios exclusivos e sem anúncios
OK