Cifra Club

Sagrado Coração

Legião Urbana

Cifra: Principal
exibições 59.901
Tom: A
(Esta canção não possui registro da voz de Renato)

Introdução com Harmônicos Naturais: 
 
A  D  E  (7x)
                    
E|-12-------------------------
B|-----------12---------------
G|----------------------------
D|-----7---------7-----7---7--
A|--------9---------7---------
E|----------------------------

E|-12-----------------------------
B|-----------12-------------------
G|--------------------------------
D|-----7---------7-----7----7-----
A|--------9---------7----------7--
E|--------------------------------

E|-12-------------------
B|--------12------------
G|----------------------
D|-----7-------7-----7--
A|----------------7-----
E|----------------------

E|-12------------------
B|--------12-----------
G|---------------------
D|-----7---------7-----
A|------------9-----7--
E|---------------------

E|-12----------------------
B|--------12--------12-----
G|-------------------------
D|-----7---------7---------
A|------------9---------7--
E|-------------------------
 
    (A  D  E)
 Sei que tenho um coração
 Mas é difícil de explicar
 De falar de bondade e gratidão
 E estas coisas que ninguém gosta de falar

 Falam de um lugar
 Mas onde é que está?
 Onde há virtude e inteligência
 E as pessoas são boas e sensíveis
 E que a luz no coração
 É o que pode me salvar
 Mas não acredito nisso
 Tento mas é só de vez em quando

 (Possível refrão:  A  F#m  C#m  D  E)

 Onde está este lugar?
 Onde está essa luz?
 Se o que vejo é tão triste
 E o que fazemos tão errado?
 
 E me disseram! Este lugar pode estar sempre ao seu lado
 E a alegria dentro de você
 Porque sua vida é luz
   
    (A  D  E)
 E quando vi seus olhos
 E a alegria no seu corpo
 E o sorriso nos seus lábios
 Eu quase acreditei
 Mas é tão difícil

 Por isso peço por favor
 Pense em mim, ore por mim
 E me diga: - este lugar distante está dentro de você
 Diga que nossa vida é luz
 Me fale do sagrado coração
 Porque eu preciso de ajuda

 (A  D  E) (A  F#m  C#m  D  E)
Acordes para:
    Composição: Renato RussoColaboração e revisão:
    • Bruno Rubik

    0 comentários

      mostrar mais comentários

      Conseguiu tocar?

      1tocaram1ainda não

      Grave um vídeo tocando Sagrado Coração e mande pra gente!

      00:00 / 00:00
      outros vídeos desta música
      repetirqualidadeautomática
      Outro vídeos desta música
        00:00 / 00:00
        automática
        OK