Cifra Club

Aprenda

Se Fiquei Esperando Meu Amor Passar

Legião Urbana

Tab de baixo: Principal
[Intro]
G|----------------------------------------------------------|
D|----------------------------------------------------------|
A|-8---8-8-8-8-8-8-5---5-5-5-5-----------------3---3-3-3-3/-|
E|-------------------------------3---3-3-3-3-5--------------|

G|---------------------------------------------------------|
D|---------------------------------------------------------|
A|-8---8-8-8-8---5---5-5-5-5-----------------3---3-3-3-3/--|
E|------------------------------3---3-3-3-3-5--------------|

G|---------------------------------------------------------|
D|---------------------------------------------------------|
A|-8---8-8-8---8-5---5-5-5-5-----------------3---3-3-3-3/--|
E|------------------------------3---3-3-3-3-5--------------|

G|---------------------------------------------------------|
D|---------------------------------------------------------|
A|-8---8-8-8-8---5---5-5-5-5-----------------3---3-3-3-3/--|
E|------------------------------3---3-3-3-3-5--------------|

[Verso]
G|-----------------------------------------------------------------|
D|-----------------------------------------------------------------|
A|-10---10-10-10-10---9---9-9----9---7---7-7-7---7-7-7---7-7-7-7---|
E|----------------------------10-----------------------------------|

G|------------------------------------------------------------|
D|------------------------------------------------------------|
A|----------------------------------------------5---5-5-5-3-5-|
E|-8---8-8-8-8---7---7-7-7-7---5-5---5-5-5-5------------------|

G|------------------------------------------------------------|
D|------------------------------------------------------------|
A|-/10---10-10-10------9---9--9----7---7-----7-5---5-5-5-5-/--|
E|----------------10-----------10-------0-0-------------------|

G|------------------------------------------------------------|
D|------------------------------------------------------------|
A|----------------------------------------------5---5-5-5-5-/-|
E|-8---8-8-8-8---7---7-7-7-7---5-5---5-5-5-5-7----------------|

G|--------------------------------------------------------------|
D|--------------------------------------------------------------|
A|-10---10--10-10---9---9-9----9---7---7-7------5---5-5-5-5-/---|
E|--------------------------10-------------9--------------------|

G|----------------------------------------------------------|
D|----------------------------------------------------------|
A|--------------------------------------------5---5-5-5-5-/-|
E|-8---8-8-8-8---7---7-7-7-7---5---5-5-0-3------------------|

G|-----------------------------------------------------------------|
D|-----------------------------------------------------------------|
A|-10---10-10----9---9-9---9-9----9---7---7-7-7-7---5---5-5---5/7--|
E|------------10---------------10----------------------------7-----|

G|-----------------------------------------------------------|
D|-----------------------------------------------------------|
A|--------------------------------------------5---5-5-5-5-5/-|
E|-8---8-8-8-8---7---7-7-7-7---5---5-5-0-3-------------------|

[Refrão]
G|-----------------------------------------------------------------------|
D|-----------------------------------------------------------------------|
A|-8---8-8-8-8---/9---9-9----9---10---10-10-10------10---10-10-----------|
E|------------------------10-------------------10--------------10-10-10--|

G|------------------------------------------------------------------|
D|------------------------------------------------------------------|
A|-8---8-8---8---9---9-9----9---10---10---10-10---10---10---10---10-|
E|---------9-------------10-------------8-----------------8---------|

G|--------------------------------------------------------------------|
D|--------------------------------------------------------------------|
A|-8---8-8---8---9---9-9----9---10---10---10-10---10------10----10----|
E|---------9-------------10-------------8--------------10----10-------|

G|------------------------------------------------------------|
D|------------------------------------------------------------|
A|-3---3-3-3-3-/---------------5---5-5-5---5-5-5---5-5-5-5/---|
E|---------------5---5-5-5-5----------------------------------|

[Entre verso]
G|-------------------------------------------------------------------|
D|-------------------------------------------------------------------|
A|-8-8---8-8---8---5-5---5-5-5-5-------------------3-3---3-3-3-0-3/--|
E|----------------------------------3-3---3-3-3-3-5------------------|

G|---------------------------------------------------------|
D|---------------------------------------------------------|
A|-8---8-8-8-8---5---5-5-5-5-----------------3---3-3-3-3/--| x2
E|------------------------------3---3-3-3-3-5--------------|

G|------------------------------------------------------------------|
D|------------------------------------------------------------------|
A|-8---8-8-8-8---5---5-5-5-5----------------------------------------|
E|------------------------------3---3-3-3-3---/888-8-8-8-8-8-8-8-8/-|

[2ndo verso]
G|-------------------------------------------------------------------|
D|-------------------------------------------------------------------|
A|-10---10-10-10-10---9---9-9----9---7-7---7-7----7-5-5---5-5---5----|
E|----------------------------10-------------------------------7-----|


G|-------------------------------------------------------------------|
D|-------------------------------------------------------------------|
A|--------------------------------------------------5-5---5-5-5-5/---|
E|-8-8---8-8---8---7-7---7-7---7---5-5---5-x-5-5-7-------------------|

G|----------------------------------------------------------------------|
D|----------------------------------------------------------------------|
A|-10-10-x-10---10-10---9-9---9---9----9-7-7---7-7---7-5-5---5---5---5--|
E|----------------------------------10------------------------------7---|

G|--------------------------------------------------------|
D|--------------------------------------------------------|
A|------------------------------------------5---5-5-5-5-/-|
E|-8---8-8---8-7---7-7-7-7---5---5-5-5-5-7----------------|

[2ndo refrão]
G|----------------------------------------------------------------------|
D|----------------------------------------------------------------------|
A|-8---8---8-8---9----9---9-9---/10---10-10----10---10----10---10----10-|
E|-------------9----------------------------10--------------------10----|

G|--------------------------------------------------------------------|
D|--------------------------------------------------------------------|
A|-8----8---8---8-9----9---9----9-10----10---10----10-10----10---10---| x2
E|------------9--------------10-----------------10------------------8-|

G|------------------------------------------------------------|
D|------------------------------------------------------------|
A|-3---3-3-3-3-/----------------5---5-5-5---5-5---5---5-5-/---|
E|---------------5----5---5-5---------------------------------|

[2ndo entre verso]
G|-------------------------------------------------------------|
D|-------------------------------------------------------------|
A|-8----8---8-8---5----5---5-5------------------3----3---3-3/--| x2
E|--------------------------------3----3---3-3-5---------------|

[“Cordeiro de Deus...”]
G|-----------------------------------------------------------|
D|-----------------------------------------------------------|
A|-8---8-8-8-8---5----5---5-5-----------------3----3-3-0-3/--|
E|-------------------------------3---3-3-3-3-5---------------|

G|-----------------------------------------------------------|
D|-----------------------------------------------------------|
A|-8---8---8-8---5----5---5-5----------------3----3-3-5-3/---|
E|-------8-----------------------3---3-3-3-3-5---------------|

G|-----------------------------------------------------------|
D|-----------------------------------------------------------|
A|-8---8-8-8---8-5----5---5-5-----------------3----3---3-3/--|
E|-----------8-------------------3---3-3-3-3-5---------------|

G|-------------------------------------------------------------|
D|-------------------------------------------------------------|
A|-8---8---8-8---5----5---5-5----------------3----3---3-5-5/---|
E|-------9-----------------------3---3-3-3-3-5-----------------|

G|----------------------------------------------------------|
D|----------------------------------------------------------|
A|-8---8-8-8---8-5----5---0-5-----------------3----3-3-3-3/-|
E|------------------------------3---3-3-3-3-5---------------|

G|-----------------------------------------------------------|
D|-----------------------------------------------------------|
A|-8---8-8-8---8-5----5-5-5-5-----------------3-3---3-3-5-3/-|
E|------------------------------3---3-3-3-3-5----------------|

[Final]
G|-----------------------------------------------------------|
D|-----------------------7-----------------------------------|
A|-8---8---8-8---5----5---5-5----------------3-x-3-3-3-3-3---|
E|-------8-----------------------3---3-3-3-3-5---------------|

G|-------------------------------------------------------------|
D|------------------------3------------------------------------|
A|-8-8-8-8-8-8-8---5---5---5-5---------------3-3-x-3-3-3-3-3/--|
E|--------------------------------3---3-3-3-5------------------|

G|--------------------------------------------------------------|
D|------------------------7-------------------------------------|
A|-8---8-8-8-8---5---5-5---5-5-----------------3-x-3-3-3-3-3/---|
E|---------------------------------3---3-3-3-3-5----------------|

G|----------------------------------------------------------------|
D|-------------------------7--------------------------------------|
A|-8---8---8-8-8-8-5---5-5---5-5-----------------3-x-3-3-3-0-3-3--|
E|---------------------------------3---3-3-3-3-5------------------|

G|---------------------------------------------------------------|
D|-------------------------7-------------------------------------|
A|-8---8---8-8-8-8-5---5-5---5-5-----------------3-x-3-3-3-3-3/--|
E|---------------------------------3---3-3-3-3-5-----------------|

G|---------------------------------------------------------------|
D|---------------------------------------------------------------|
A|-8---8-8---8-----5---5-5-5----------------------3-x-3-3-3-3-3/-|
E|---------8---8-8-----------5-5----3---3-3-3-3-5----------------|
Composição de Dado Villa-Lobos / Marcelo Bonfá / Renato Russo
Colaboração e revisão:
  • Gustavo Weffort
211 exibições

0 comentários

Mostrar mais comentários

Conseguiu tocar?

1 Tocaram 0 Ainda não

Grave um vídeo tocando Se Fiquei Esperando Meu Amor Passar e mande pra gente!

00:00 / 00:00
outros vídeos desta música
repetir qualidade Automático
Outros vídeos desta música
00:00 / 00:00
Automático

Cifra Club Pro

Aproveite o Cifra Club com benefícios exclusivos e sem anúncios
Cifra Club Pro
Aproveite o Cifra Club com benefícios exclusivos e sem anúncios
OK