Cifra Club

Aprenda

Sete Cidades

Legião Urbana

Tab de baixo: Principal
Sete Cidades - Legião Urbana

[Verso]
G|---------------------------------------------------------------------|
D|---------------------------------------------------------------------|
A|-3-3-3-3-3-3-3-3-----------------------------------------------------| x6
E|-----------------5-5-5-5-5-5-5-0-1-1-1-1-1-1-1-1-1/3-3-3-3-3-3-3-3-0-|

[Refrão]
G|---------------------------------------------------------|
D|---------------------------------------------------------|
A|---------------------------------------------------------| x2
E|-3--5---0-3--5---0-3--5--3-3-3-3-3-3-3-3-3-3-3-3-3-3-3-0-|

G|-----------------------------------------------------------------|
D|-----------------------------------------------------------------|
A|-----------------------------------------------------------------|
E|-6-6-6-6-6-6-6-6-6-6-6-6-6-6-6-6-5-5-5-5-5-5-5-5-5-5-5-5-5-5-5-0-|

G|-------------------------------------------------------------------|
D|-------------------------------------------------------------------|
A|-------------------------------------------------------------------|
E|-1-1-1-1-1-1-1-1-1-1-1-1-1-1-1-1-1-3-3-3-3-3-3-3-3-3-3-3-3-3-3-3-0-|
	
[2ndo verso]
G|---------------------------------------------------------------------|
D|---------------------------------------------------------------------|
A|-3-3-3-3-3-3-3-3-----------------------------------------------------| x4
E|-----------------5-5-5-5-5-5-5-0-1-1-1-1-1-1-1-1-1/3-3-3-3-3-3-3-3-0-|

[2ndo refrão]
G|---------------------------------------------------------|
D|---------------------------------------------------------|
A|---------------------------------------------------------| x2
E|-3--5---0-3--5---0-3--5--3-3-3-3-3-3-3-3-3-3-3-3-3-3-3-0-|

G|-----------------------------------------------------------------|
D|-----------------------------------------------------------------|
A|-----------------------------------------------------------------|
E|-6-6-6-6-6-6-6-6-6-6-6-6-6-6-6-6-5-5-5-5-5-5-5-5-5-5-5-5-5-5-5-0-|

G|-------------------------------------------------------------------|
D|-------------------------------------------------------------------|
A|-------------------------------------------------------------------|
E|-1-1-1-1-1-1-1-1-1-1-1-1-1-1-1-1-1-3-3-3-3-3-3-3-3-3-3-3-3-3-3-3-0-|

[Ponte]
G|-----------------------------------------------------------------|
D|-----------------------------------------------------------------|
A|-3-3-3-3-3-3-3-3-3-3-3-3-3-3-3-3-3-3-3-3-3-3-3-3-3-3-3-3-3-3-3---|
E|---------------------------------------------------------------0-|

G|-----------------------------------------------------------------|
D|-----------------------------------------------------------------|
A|-------------------------------------------------3-3-3-3-3-3-3---|
E|-3-3-3-3-3-3-3-3-3-3-3-3-3-3-3-3-1-1-1-1-1-1-1-0---------------0-|

G|-------------------------------------------------------------------|
D|-------------------------------------------------------------------|
A|-------------------------------------------------------------------|
E|-1-1-1-1-1-1-1-1-/5-5-5-5-5-5-5-5\-3-3-3-3-3-3-3-3-3-3-3-3-3-3-3-3-|

G|-----------------------------------------------------------------|
D|-----------------------------------------------------------------|
A|-3-3-3-3-3-3-3-------------------3-3-3-3-3-3-3-3-3-3-3-3-3-3-3---|
E|---------------0-1-1-1-1-1-1-1-0-------------------------------0-|

G|------------------------------------------------------------------|
D|------------------------------------------------------------------|
A|------------------------------------------------------------------|
E|-5-5-5-5-5-5-5-0-3-3-3-3-3-3-3-3\-1-1-1-1-1-1-1-1-1-1-1-1-3-3-3-0-|

G|-----------------------------------------------------------------|
D|-----------------------------------------------------------------|
A|-3-3-3-3-3-3-3-3-3-3-3-3-3-3-3-3-3-3-3-3-3-3-3-3-3-3-3-3-3-3-3---|
E|---------------------------------------------------------------0-|

[3ro refrão]
G|---------------------------------------------------------|
D|---------------------------------------------------------|
A|---------------------------------------------------------| x2
E|-3--5---0-3--5---0-3--5--3-3-3-3-3-3-3-3-3-3-3-3-3-3-3-0-|

G|-----------------------------------------------------------------|
D|-----------------------------------------------------------------|
A|-----------------------------------------------------------------|
E|-6-6-6-6-6-6-6-6-6-6-6-6-6-6-6-6-5-5-5-5-5-5-5-5-5-5-5-5-5-5-5-0-|

G|-------------------------------------------------------------------|
D|-------------------------------------------------------------------|
A|-------------------------------------------------------------------|
E|-1-1-1-1-1-1-1-1-1-1-1-1-1-1-1-1-1-3-3-3-3-3-3-3-3-3-3-3-3-3-3-3-0-|

[Final]
G|-----------------------------------------------------------------|
D|-----------------------------------------------------------------|
A|-3-3-3-3-3-3-3-3-3-3-3-3-3-3-3-0-1-1-1-1-1-1-1-1-1-1-1-1-1-1-1-1-|
E|-----------------------------------------------------------------|

G|-----------------------------------------------------------------|
D|-----------------------------------------------------------------|
A|-----------------------------------------------------------------|
E|-5-5-5-5-5-5-5-5-5-5-5-5-5-5-5-0-3-3-3-3-3-3-3-3-3-3-3-3-3-3-3-0-|

G|-----------------------------------------------------------------|
D|-----------------------------------------------------------------|
A|-----------------------------------------------------------------|
E|-1-1-1-1-1-1-1-1-1-1-1-1-1-1-1-1-0-0-0-0-0-0-0-0-0-0-0-0-0-0-0-0-|

G|-----------------------------------------------------------------|
D|---------------------------------------------------------------7-|
A|---------------------------------5-5-5-5-5-5-5-5-5-5-5-5-5-5-5---|
E|-5-5-5-5-5-5-5-5-5-5-5-5-5-5-5-0---------------------------------|

G|----------------------------------------------------------------------|
D|-5-5-5-5-5-5-5-5-5-5-5-5-5-0-2-3---2-0-----0-2------------------------|
A|---------------------------------------3-----------0-2-3~-------------|
E|-----------------------------------------------3----------------------|
Composição de Dado Villa-Lobos / Marcelo Bonfá / Renato Russo
Colaboração e revisão:
  • Gustavo Weffort
207 exibições

0 comentários

Ver todos os comentários
00:00 / 00:00
outros vídeos desta música
repetir qualidade Automático
Outros vídeos desta música
00:00 / 00:00
Automático

Cifra Club Pro

Aproveite o Cifra Club com benefícios exclusivos e sem anúncios
Cifra Club Pro
Aproveite o Cifra Club com benefícios exclusivos e sem anúncios
OK