Cifra Club

Soldados

Legião Urbana

Cifra: Principal
exibições 250.499
Tom: D#
Introd.: (Cm Bb)

1ª parte
Guitarra:Antes do teclado aparece essa guitarra.
(Obs:Abafar na 3ª casa)
E|-----------------------------|
B|-10s11~---------11-----------|
G|-------------10---------(x)--|
D|-----------------------------|
A|-----------------------------|
E|-----------------------------|

(Obs: O Cm e o Bb devem ser feitos assim.)
     Cm   Bb
E|----|---|
B|-11-|-3-|
G|-10-|-3-|

                                     Finalzinho do teclado. essas partes passam
                  
Teclado da intro.                    Quase despercebidas,mas fica legal.
E|-6-6-6-6-6-6-6-6--------------|   E|------------|
B|-----------------5-8---6------|   B|------------|
G|---------------------5-----7--|2x G|--7-8-10-8--|
D|-------------------------5----|   D|------------|
A|------------------------------|   A|------------|
E|------------------------------|   E|------------|

obs:O baixo fica assim por quase toda a musica.
Contra Baixo.
|-------------------------------------------------------------|
|-------------------------------------------------------------|14x
|-3-3-3-3-3-3-3-3-3-3-3-3-3-3-0-1-1-1-1-1-1-1-1-1-1-1-1-1-1-0-|
|-------------------------------------------------------------|

Guitarra:Em alguns pontos da música aparece esses riffs da guitarra
Guitarra 1      Guitarra 2
E|---------|    E|----------| 
B|---4-3---|    B|----------|
G|-3-----5-|    G|---8-7----|
D|-3-----5-|    D|-8-----10-|
A|-1-----3-|    A|-8-----10-|
E|---------|    E|-6-----8--|

 Cm
Nossas meninas estão longe daqui 
      Bb
Não temos com quem chorar e nem pra onde ir
Cm
Se lembra quando era só brincadeira
Bb                                Cm
Fingir de ser soldado a tarde inteira?

Teclado:Nessa parte na versão original não tem esse teclado, mas CD
(Música p/ Acampamento) tem. Então é legal fazer essa parte pra não ficar
tipo "um buraco" na música.
     Cm                      Bb
E|-6-6-6-6-6-6-6-6--------------|   E|------------|
B|-----------------5-8---6------|   B|------------|
G|---------------------5-----7--|2x G|--7-8-10-8--|
D|-------------------------5----|   D|------------|
A|------------------------------|   A|------------|
E|------------------------------|   E|------------|

       Cm
Mas agora a coragem que temos no coração
        Bb
Parece medo da morte mas não era então
      Cm
Tenho medo de lhe dizer o que eu quero tanto
      Bb
Tenho medo e eu sei porquê:
                  (Cm Bb)
Estamos esperando

Teclado: 
E|-6-6-6-6-6-6-6-6--------------|   E|------------|
B|-----------------5-8---6------|   B|------------|
G|---------------------5-----7--|2x G|--7-8-10-8--|
D|-------------------------5----|   D|------------|
A|------------------------------|   A|------------|
E|------------------------------|   E|------------|

   Cm             Bb
Quem é o inimigo? Quem é você?
   Cm             Bb
Quem é o inimigo? Quem é você?
   Cm             Bb
Quem é o inimigo? Quem é você?
   Cm             Bb
Quem é o inimigo? Quem é você?

    Cm                               Bb
Nos defendemos tanto tanto sem saber
   Cm Bb      G# B Bb
Porque  lutar oooo . . .
   
Dica:Se vc estiver tocando com alguém, vcs podem escolher 
fazer o teclado e uma das guitarras ou fazer as duas guitarras.
Obs: Nessa música não existe 2 guitarras, mas pode tocar com 2 que fica legal

Teclado:Ele começa assim e depois muda
E|---6----6----6----6--6-6--6-6--6-6--6-6---6----6----6----6--6-6--6-6--6-6--6-6-|
B|-6----6----6----6-----------------------6----6----6----6-----------------------|
G|-------------------------------------------------------------------------------|
D|-------------------------------------------------------------------------------|
A|-------------------------------------------------------------------------------|
E|-------------------------------------------------------------------------------|

Teclado:Agora é a hora que ele muda.
E|---6----6----6----6--6-6--6-6--6-6--6-6---6----6----6----6--6-6--6-6--6-6-|
B|-9----9----9----9-----------------------9----9----9----9------------------|
G|--------------------------------------------------------------------------|
D|--------------------------------------------------------------------------|
A|--------------------------------------------------------------------------|
E|--------------------------------------------------------------------------|

Guitarra 1
        (Ab)           (B)                (Bb)
E|-------------|-----------|-------------------------------|
B|-------------|-----------|-------------------------------|
G|-------------|-----------|-------------------------------|
D|-6-6-6-6-6-6-|-9-9-9-9-9-|-8-8-8-8-8-8-8-8-8-8-8-8-8-8-8-|
A|-6-6-6-6-6-6-|-9-9-9-9-9-|-8-8-8-8-8-8-8-8-8-8-8-8-8-8-8-|
E|-4-4-4-4-4-4-|-7-7-7-7-7-|-6-6-6-6-6-6-6-6-6-6-6-6-6-6-6-|
 
Guitarra 2
        (Ab)           (B)                (Bb)
E|-------------|-----------|-------------------------------|
B|-------------|-----------|-------------------------------| 
G|-------------|-4-4-4-4-4-|-3-3-3-3-3-3-3-3-3-3-3-3-3-3-3-| 4x
D|-6-6-6-6-6-6-|-4-4-4-4-4-|-3-3-3-3-3-3-3-3-3-3-3-3-3-3-3-|
A|-6-6-6-6-6-6-|-2-2-2-2-2-|-1-1-1-1-1-1-1-1-1-1-1-1-1-1-1-|
E|-4-4-4-4-4-4-|-----------|-------------------------------|
        

2ª parte
Contra Baixo.
|-------------------------------------------------------------| 
|-------------------------------------------------------------|14x
|-3-3-3-3-3-3-3-3-3-3-3-3-3-3-0-1-1-1-1-1-1-1-1-1-1-1-1-1-1-0-|
|-------------------------------------------------------------|

Teclado: 
E|-6-6-6-6-6-6-6-6--------------|   E|-------------|
B|-----------------5-8---6------|   B|-------------|
G|---------------------5-----7--|1x G|-7-8-7-5---5-|
D|-------------------------5----|   D|---------8---|
A|------------------------------|   A|-------------|
E|------------------------------|   E|-------------|
 
Cm
Nossas meninas estão longe daqui
Bb
E de repente eu vi você cair
Cm
Não sei armar o que eu senti
Bb
Não sei dizer que vi você ali
Cm
Quem vai saber o que você sentiu?
Bb
Quem vai saber o que você pensou?
Cm
Quem vai dizer agora o que eu não fiz
Bb
Com explicar pra você o que eu quis
Cm             Bb Cm               Bb
Somos soldados     pedindo esmola

Teclado.
E|--6-6-6-6-6-6-6-6-------------|   
B|------------------5-8---6-----|   
G|----------------------5-----7-|2x até (e a gente não queria lutar...)
D|--------------------------5---|   
A|------------------------------|   
E|------------------------------|   
 
Cm                         Bb
E a gente não queria lutar e a gente não queria lutar
Cm                         Bb
E a gente não queria lutar e a gente não queria lutar ...

Teclado do final:
Isso repete até o final.         E finaliza assim.
E|--------6-------6-------6...-|--------6-------6-6--|
B|--6---6---6---6---6---6...---|--6---6---6---6------|
G|----5-------5-------5...-----|----5-------5--------|
D|-----------------------------|---------------------|
A|-----------------------------|---------------------|
E|-----------------------------|---------------------|

(Nesta parte fica a dica do teclado e guitarra ou 2 guitarras)
        (Ab)           (B)                 (Bb)                    (Bb)
E|-------------|-----------|-------------------------------|   E|-----|
B|-------------|-----------|-------------------------------|   B|-----|
G|-------------|-----------|-------------------------------|   G|-----|
D|-6-6-6-6-6-6-|-9-9-9-9-9-|-8-8-8-8-8-8-8-8-8-8-8-8-8-8-8-|4x D|-8-8-|
A|-6-6-6-6-6-6-|-9-9-9-9-9-|-8-8-8-8-8-8-8-8-8-8-8-8-8-8-8-|   A|-8-8-|
E|-4-4-4-4-4-4-|-7-7-7-7-7-|-6-6-6-6-6-6-6-6-6-6-6-6-6-6-6-|   E|-6-6-|

        (Ab)           (B)                  (Bb)                   (Bb)
E|-------------|-----------|-------------------------------|   E|-----|
B|-------------|-----------|-------------------------------|   B|-----|
G|-------------|-4-4-4-4-4-|-3-3-3-3-3-3-3-3-3-3-3-3-3-3-3-|4x G|-3-3-|(335543) ->(x355xx) ->
D|-6-6-6-6-6-6-|-4-4-4-4-4-|-3-3-3-3-3-3-3-3-3-3-3-3-3-3-3-|   D|-3-3-|
A|-6-6-6-6-6-6-|-2-2-2-2-2-|-1-1-1-1-1-1-1-1-1-1-1-1-1-1-1-|   A|-1-1-|
E|-4-4-4-4-4-4-|-----------|-------------------------------|   E|-----|
Acordes para:
    Colaboração e revisão:

    0 comentários

      mostrar mais comentários

      Conseguiu tocar?

      21tocaram3ainda não

      Grave um vídeo tocando Soldados e mande pra gente!

      00:00 / 00:00
      outros vídeos desta música
      repetirqualidadeautomática
      Outro vídeos desta música
        00:00 / 00:00
        automática
        OK