Cifra Club

Um Dia Perfeito

Legião Urbana

Cifra: Principal
exibições 236.345
Tom: E
Intro: E  C#m  B7

E|-----------------------------4-|
B|------5-----7--5-------------5-|
G|----4---4--------4-----------6-|
D|--------------------------4----|
A|------------------------4------|
E|-0-----------------------------|

E|-------------------------------|
B|-------4/5---------------------|
G|-------------------------------|
D|-------------------------------|
A|--2----------------------------|
E|-------------------------------|


E
Quase morri
                           A
Há menos de vinte e duas horas atrás
       C#m
Hoje a gente fica na varanda
   F#           B7                 A
Um dia perfeito com as crianças.
          E
São as pequenas coisas que valem mais
      F#
É tão bom estarmos juntos
   B7         A
E tão simples:
   C#m
Um dia perfeito.

( E  C#m  B7 )

E
Corre,corre,corre
           E7
Que vai chover
          A     C#m F# B7 A7
Olha a chuva!

    E
Não vou me deixar embrutecer
       F#
Eu acredito nos meus ideais
        B7              A
Podem até maltratar meu coração
          C#m
Que meu espírito ninguém vai conseguir quebrar.

  ( E  C#m  B7  A  C  E )
E|-------------------------------|
B|----5-7-5--------7---------4/5-|
G|---------------6---8-----------|
D|-------------6-----------------|
A|-7----------------------2------|
E|-------------------------------|

E|-------------|--------------------------------------------------------------|
B|-5-----------|-2-3-2--2-3-2---5-7-5--5-7-5--------------------4-5-4---2-3-2-|
G|---7---------|-------------------------------2/3-4-3--3-4-3-----------------|
D|-----5/7~-/5-|--------------------------------------------------------------|
A|-------------|--------------------------------------------------------------|
E|-------------|--------------------------------------------------------------|

E|-4--------4---2---0-|--------------------------------|-4------4~~~--|
B|---5----------------|------------------4-5-4---2-3-2-|---5----5~~~--|
G|--------5---3---1---|-2/3-4-3--3-4-3-----------------|-----6--6~~~--|
D|--------------------|--------------------------------|--------------|
A|--------------------|--------------------------------|--------------|
E|--------------------|--------------------------------|--------------|

E|---------------------|
B|---------------------|
G|-6-7-6--5-7-5--------|
D|--------------7-5-6~-|
A|---------------------|
E|---------------------|
Acordes para:

    0 comentários

      mostrar mais comentários

      Conseguiu tocar?

      12tocaram0ainda não

      Grave um vídeo tocando Um Dia Perfeito e mande pra gente!

      00:00 / 00:00
      outros vídeos desta música
      repetirqualidadeautomática
      Outro vídeos desta música
        00:00 / 00:00
        automática
        OK