Cifra Club

Aprenda

Vento No Litoral

Legião Urbana

Tab de baixo: Principal
(intro)

G|------------------------------------------------------------|
D|------------------------------------------------------------|
A|------------------------------------3~----------3~----------|
E|--5~-----0~-----5~-----0~-----1~----------1~----------------|

  De tarde...
G|------------------------------------------------------------|
D|------------------------------------------------------------|
A|---------------------3----1--------------------------3------|
E|-5----0----5----0--------------5----1--3--5----1--3---------|

  Agora está...
G|--------------------------------5-----------------------------------|
D|--------------------------------------------------------------------|
A|-----------5-------------------5----1-------------------------------|
E|-1----0---------3----1----0--------------5----1--3--5----1--3--5---|


G|------------------------------------------------------------------|
D|------------------------------------------------------------------|
A|--------------------3----1----------------------------------------| 
E|-5----0----5----0--------------5----1--3--5----1--3---------------|

  Agimos certo...
G|----------------------------------------------------------------------------|
D|----------------------------------------------------------------------------|
A|-3----2----1---------5----3----2--------------------------5----3---1--------|
E|----------------5-------------------5--3--1-----0----5--------------------3-|

  Quero ser feliz...
G|----------------------------------------------------------------------------------|
D|----------------------------------------------------------------------------------|
A|-3---------1-----------------------------2-5-3------------------------------------|
E|------1---------3-----5----0----5----2-5---------1----0----0----5----0----5----0--|
                       
  Sei que faço...
G|-----------------------------------------------------------------------------|
D|-----------------------------------------------------------------------------|
A|--3----1----------------3---------3---------3---------3---------3---------3--|
E|------------5--3--1--3-------1---------1---------1---------1---------1-------|
Composição de Dado Villa-Lobos / Renato Russo
Colaboração e revisão:
  • marcelo gameiro
  • matheus ciri
9.399 exibições

0 comentários

Ver todos os comentários
00:00 / 00:00
outros vídeos desta música
repetir qualidade Automático
Outros vídeos desta música
00:00 / 00:00
Automático

Cifra Club Pro

Aproveite o Cifra Club com benefícios exclusivos e sem anúncios
Cifra Club Pro
Aproveite o Cifra Club com benefícios exclusivos e sem anúncios
OK