Cifra Club

Vinte e Nove

Legião Urbana

Cifra: Principal (violão e guitarra)
exibições 513.703
Tom: A
[Intro] G  C  Am  D  C  Am  G

E|-----------------------------|
B|-----------5-3---------------|
G|-2-4-5-4-2-----2-4-5-4-2-----|
D|-----------------------------|
A|-----------------------------|
E|-----------------------------|

       G          C              D
 Perdi vinte em vinte e nove amizades
     G              C             D
 Por conta de uma pedra em minhas mãos
          G/B                         Am7
 Me embriaguei morrendo vinte e nove vezes
            G       F         Em
 Estou aprendendo a viver sem você
C         G/B           Am7   D
 Já que você não me quer mais

        G             C           D
 Passei vinte e nove meses num navio
   G             C          D
 E vinte e nove dias na prisão
               G/B                      Am7
 E aos vinte e nove, com o retorno de Saturno
     G      F       Em
 Decidi começar a viver

          C               G/B
 Quando você deixou de me amar
               Am7
 Aprendi a perdoar
D             G    Introdução
 E a pedir perdão

   G                        Am7
 E vinte e nove anjos me saudaram
        D                         C  Am7  G
 E tive vinte e nove amigos outra vez

( A  D  Bm  E  D  Bm  A )

E|-------------------------4-5-|
B|-----------7-5---------------|
G|-4-6-7-6-4-----4-6-7-6-4-----|
D|-----------------------------|
A|-----------------------------|
E|-----------------------------|

( A  D  E/G#  D )
Acordes para:

    0 comentários

    mostrar mais comentários

    Conseguiu tocar?

    37 tocaram 4 ainda não

    Grave um vídeo tocando Vinte e Nove e mande pra gente!

    00:00 / 00:00
    outros vídeos desta música
    repetir qualidade Automático
    Outros vídeos desta música
    00:00 / 00:00
    Automático
    OK