O Último Pôr do Sol

Lenine

Composição de: Lenine / Lula Queiroga
tom: D
Afinação: D A D G B E

[Intro]

Parte 1 de 4
E|-----------------------------------------|
B|-----------------------------------------|
G|---------------0---2---------------------|
D|-0-0-----0---2---4-----------------------|
A|-------2---4-----------------------------|
E|-----5-----------0-0---------------------|

Parte 2 de 4
E|-----------------------------------------|
B|-----------------------------------------|
G|---------------0-------------------------|
D|-0-0-----0---2---4-----------------------|
A|-------2---4-------5---------------------|
E|-----5-----------0-0---------------------|

Parte 3 de 4
E|-----------------------------------------|
B|-----------------------------------------|
G|---------------0---2/4\2-----------------|
D|-0-0-----0---2---4-----------------------|
A|-------2---4-----------------------------|
E|-----5-----------0-0---------------------|

Parte 4 de 4
E|-----------------------------------------|
B|-----------------------------------------|
G|---------------0-------------------------|
D|-0-0-----0---2---4-----------------------|
A|-------2---4-------5---------------------|
E|-----5-----------0-0---------------------|

[Primeira Parte]

[Dedilhado Primeira Parte]

  D5(7/9)  G/D    G
E|-----0-----------------------------------|
B|-------3------3-----3--------------------|
G|---5--------4-----4----------------------|
D|----------0------------------------------|
A|-----------------------------------------|
E|-0--------------5------------------------|

[Variação Final Primeira Parte]

  D5(7/9)  G/D
E|-----0-----------------------------------|
B|-------3---------------------------------|
G|---5--------4----------------------------|
D|----------0------------------------------|
A|-----------------------------------------|
E|-0---------------------------------------|

A onda ainda quebra na praia

Espumas se misturam com o vento

No dia em que “ocê” foi embora eu fiquei

Sentindo saudades do que não foi

Lembrando até do que eu não vivi

Pensando nós dois


No dia em que “ocê” foi embora eu fiquei

Sentindo saudades do que não foi

Lembrando até do que eu não vivi

Pensando nós dois

No dia em que “ocê” foi embora eu fiquei

Sentindo saudades do que não foi

Lembrando até do que eu não vivi

Pensando nós dois


Eu lembro a concha em seu ouvido

Trazendo o barulho do mar na areia

No dia em que “ocê” foi embora eu fiquei

Sozinho olhando o sol morrer

Por entre as ruínas de Santa Cruz

Lembrando nós dois

No dia em que “ocê” foi embora eu fiquei

Sozinho olhando o sol morrer

Por entre as ruínas de Santa Cruz

Lembrando nós dois


[Ponte]



  Em7  D/E C/D      C9    G7M(6)     A5(7/9)
E|-3---2---0-------------------0--------0--|
B|-3---3---1--1-----3----------0--------0--|
G|-4---2---0--0-----0----------0--------0--|
D|-2---2---0--------2--0--4-------4--5-----|
A|---------------0--3--0--5-------5--7-----|
E|------------------------5--5----5--7-----|

   Em7 D/E C/D       C9   G7M(6)     A5(7/9)
E|-3---2---0-------------------0--------0--|
B|-3---3---1--1-----3----------0--------0--|
G|-4---2---0--0-----0----------0--------0--|
D|-2---2---0--------2--0--4-------4--5-----|
A|---------------0--3--0--5-------5--7-----|
E|------------------------5--5----5--7-----|

[Segunda Parte]

[Dedilhado Segunda Parte]

  D5(7/9)  G/D    G
E|-----0-----------------------------------|
B|-------3------3-----3--------------------|
G|---5--------4-----4----------------------|
D|----------0------------------------------|
A|-----------------------------------------|
E|-0--------------5------------------------|

[Variação Final Segunda Parte]

  D5(7/9)  G/D
E|-----0-----------------------------------|
B|-------3---------------------------------|
G|---5--------4----------------------------|
D|----------0------------------------------|
A|-----------------------------------------|
E|-0---------------------------------------|

Os edifícios abandonados

As estradas sem ninguém

Óleo queimado, as vigas na areia

A lua nascendo por entre 

Os fios dos teus cabelos

Por entre os dedos da minha mão

Passaram certezas e dúvidas

Pois no dia em que “ocê” foi embora eu fiquei

Sozinho no mundo, sem ter ninguém

O último homem no dia em que o sol

Pois no dia em que “ocê” foi embora eu fiquei

Sozinho no mundo, sem ter ninguém

O último homem no dia em que o sol

Pois no dia em que “ocê” foi embora eu fiquei

Sozinho no mundo, sem ter ninguém

O último homem no dia em que o sol morreu

[Ponte]

  Em7  D/E C/D      C9    G7M(6)     A5(7/9)
E|-3---2---0-------------------0--------0--|
B|-3---3---1--1-----3----------0--------0--|
G|-4---2---0--0-----0----------0--------0--|
D|-2---2---0--------2--0--4-------4--5-----|
A|---------------0--3--0--5-------5--7-----|
E|------------------------5--5----5--7-----|

   Em7 D/E C/D       C9   G7M(6)     A5(7/9)
E|-3---2---0-------------------0--------0--|
B|-3---3---1--1-----3----------0--------0--|
G|-4---2---0--0-----0----------0--------0--|
D|-2---2---0--------2--0--4-------4--5-----|
A|---------------0--3--0--5-------5--7-----|
E|------------------------5--5----5--7-----|

[Final]

   G6  F#m7 Em7   D/E C/D       F5(9)  C5(9)
E|-7---5----3--3--2---0--------------------|
B|-5---5----3--3--3---1--1------8---8--3---|
G|-7---6----4--4--2---0--0-----10--10--5---|
D|-5---4----2--2--2---0-----0--10--10--5---|
A|------------------------------8---8--3---|
E|-----------------------------------------|

  D5(7/9)   G/D   G      D5(7/9)
E|-----0-----------------0-----------------|
B|-------3------3-----3--3-----------------|
G|---5--------4-----4----5-----------------|
D|----------0------------0-----------------|
A|-----------------------0-----------------|
E|-0--------------5------0-----------------|
Página 1 / 1

Letras e título
Acordes e artista

resetar configurações
OK