Cifra Club

American Woman

Lenny Kravitz

Cifra: Principal (violão e guitarra)
tom: C
Introdução: C5  (Riff 1)
            C5  (Riff 2)


Primeira Parte:
 
            C5  (Riff 1)
American woman    
                C5  (Riff 2)
Stay away from me
            C5  (Riff 1)
American woman
             C5  (Riff 2)
Mama let me be


Don't come hanging around my door
I don't want to see your face no more
I got more important things to do
Than spend my time growin' old with you


Segunda Parte:

     C5   (Riff 1)
Now woman
       C5  (Riff 2)
Stay away
            C5  (Riff 1)
American woman
               C5  (Riff 2)
Listen what I say

(Passagem 1)


Terceira Parte:

            C5
American woman
(Riff 1)       C5  (Riff 2)
Get away from me
            C5
American woman
(Riff 1)     C5  (Riff 2)
Mama let me be


Don't come knocking around my door,
I don't wanna see your shadow no more
Colored lights can hypnotize,
Sparkle someone else's eyes


Quarta Parte:

     C5   (Riff 1)
Now woman
      C5  (Riff 2)
Get away
            C5  (Riff 1)
American woman
               C5  (Riff 2)
Listen what I say


Solo: B5
      C5

E|------------------------------------------------------|
B|-10b12~~--b12r10p7------------------------------------|
G|-------------------9-9b11r9p7---7-9-9b11r9p7---7-7~---|
D|------------------------------9--------------9------9\|
A|------------------------------------------------------|
E|------------------------------------------------------|

E|------------------------------------------------------|
B|-----------------------------------10-----------------|
G|-----------7-9-9b11r9p7---7-9-9b11----9b11r9p7---7~~--|
D|-------7-9--------------9----------------------9------|
A|-7-8-9------------------------------------------------|
E|------------------------------------------------------|

E|------------------------------------------------------|
B|-/10-10-10-10-10-10-10/11--11-11-11\10--10-10-10\8----|
G|------------------------------------------------------|
D|------------------------------------------------------|
A|------------------------------------------------------|
E|------------------------------------------------------|

E|------------------------------------------------------|
B|-8-8-8~\----------------------------------------------|
G|------------------------------------------------------|
D|------------------------------------------------------|
A|------------------------------------------------------|
E|------------------------------------------------------|

E|-8--11b13r--11--8h11p8----8---------------------------|
B|-----------------------11---11-8-11b13----------------|
G|------------------------------------------------------|
D|------------------------------------------------------|
A|------------------------------------------------------|
E|------------------------------------------------------|

E|-8-------8-------8------...---------------------------|
B|---11b13---11b13---11b13...---------------------------|
G|------------------------------------------------------|
D|------------------------------------------------------|
A|------------------------------------------------------|
E|------------------------------------------------------|

E|-8----------------------------------------------------|
B|---13b13r11p8----8------------------------------------|
G|--------------10---10b12r10p8----8--------------------|
D|------------------------------10----------------------|
A|------------------------------------------------------|
E|------------------------------------------------------|

E|------------------------------------------------------|
B|---------------8------8~~-----------------------------|
G|-10b12r10p8----8--10--8~-----------8-10b12r10p8---8\--|
D|------------10-------------10-8-10---------------10\--|
A|------------------------------------------------------|
E|------------------------------------------------------|


Quinta Parte:

          C5  (Riff 1)
American woman
            C5  (Riff 2)
I said get way
          C5
American woman
(Riff 1)       C5  (Riff 2)
Listen what I say


Don't come hanging around my door
C5
   Don't want to see your face no more

I don't need your war machines
C5
   I don't need your ghetto scenes

Colored lights can hypnotize
C5
   Sparkle someone else's eyes


Sexta Parte:

     C5   (Riff 1)
Now woman 
      C5  (Riff 2)
Get away
            C5  (Riff 1)
American woman
               C5  (Riff 2)
Listen what I say
            C5  (Riff 1)
American woman
                C5  (Riff 2)
Stay away from me
            C5  (Riff 1)
American woman
             C5  (Riff 2)
Mama let me be


Sétima Parte:

I gotta go, I gotta getta away
I'm gonna leave you woman
I'm gonna leave you woman
I'm gonna leave you woman
I'm gonna leave you woman
Bye, bye
Bye, bye
Bye, bye
Bye, bye

And you're no good for me
And I'm no good for you
Looking at you, right in the eye
Tell you whatI'm gonna do

I'm gonna leave you woman
You know I gotta go
I'm gonna leave you woman
I gotta go (American woman)
I gotta go
I gotta go
I gotta go American Woman

(Riff 1)

E|------------------------------------------|
B|------------------------------------------|
G|------------------------------------------|
D|-x-x--------------------------------------|
A|-x-x-----1--------------------------------|
E|-x-x-1h3----------------------------------|

(Riff 2)

E|------------------------------------------|
B|-----4h6p4--------------------------------|
G|------------------------------------------|
D|-x-x--------------------------------------|
A|-x-x--------------------------------------|
E|-x-x--------------------------------------|

(Passagem 1)

E|------------------------------------------|
B|------------------------------------------|
G|-3/5------3--3----------------------------|
D|-3/5--x-x-3--3--x-x-----------------------|
A|-1/3--x-x-1--3--x-x-----1-----------------|
E|------x-x-------x-x-1h3-------------------|

E|------------------------------------------|
B|--------------------4h6p4-----------------|
G|-3/5------3--3----------------------------|
D|-3/5--x-x-3--3--x-x-----------------------|
A|-1/3--x-x-1--3--x-x-----------------------|
E|------x-x-------x-x-----------------------|
00:00 / 00:00
Outros vídeos desta música
Repetir
Outros vídeos desta música
Composição de Burton Cummings / Gary Peterson / Jim Kale / Randy Bachman
Colaboração e revisão:
  • Vinícius Dias
95.564 exibições
    • ½ Tom
    • A
    • Bb
    • B
    • C
    • Db
    • D
    • Eb
    • E
    • F
    • F#
    • G
    • Ab
  • Adicionar à lista

    0 comentários

    Ver todos os comentários

    Entre para oCifra Club PRO

    Tenha acesso a benefícios exclusivos no App e no Site

    • Chega de anúncios

    • Prioridade de compra em lançamentos

    • Mais recursos no app do Afinador

    • Atendimento Prioritário

    • Descontos nos produtos Cifra Club

    • Ajude a produzir mais conteúdo

    00:00 / 00:00
    Capítulos
    • Tocando a música
    • Dicas Iniciais / Equipamentos
    • Tocando Introdução
    • Introdução - Riff 1
    • Introdução - Riff 2
    • Dicas Primeira Parte
    • Tocando Primeira - Quarta Parte
    • Passagem
    • Dicas do Solo
    • Tocando Solo
    • Solo - Parte 1 de 4
    • Solo - Parte 2 de 4
    • Solo - Parte 3 de 4
    • Solo - Parte 4 de 4
    • Tocando Solo (Lento)
    • Dicas Quinta Parte - Final
    • Tocando Quinta Parte - Final
    • Encerramento
    • Ficha técnica

    Cifra Club Pro

    Aproveite o Cifra Club com benefícios exclusivos e sem anúncios
    Cifra Club Pro
    Aproveite o Cifra Club com benefícios exclusivos e sem anúncios
    OK