Cifra Club

Nosso Casamento

Léo Magalhães

Cifra: Principal (violão e guitarra)
exibições 66.713
Tom: F
[Intro] F  Dm  Bb  Gm  C  Dm  Gm

  E|------------------5------5-5-5------------|
B|-----------5-6-8----------------8-6-5-6-6-|
G|------5-7-----------5-5-------------------|
D|-5-7--------------------------------------|
A|------------------------------------------|
E|------------------------------------------|

E|-------------5-6-6-5-6-8-6-5--------------|
B|------5-6-8-------------------6-6-6-6/8---|
G|-5-7--------------------------------------|
D|------------------------------------------|
A|------------------------------------------|
E|------------------------------------------|

  F
Hoje está fazendo mais um ano
 Dm                    Bb
Amor, na tristeza e na dor
                     C
Sempre esteve ao meu lado

E|-------------5-|
B|------5-6-8----|
G|-5-7-----------|
D|---------------|
A|---------------|
E|---------------|

      F                                  Dm
Sei que o seu sonho sempre foi o casamento
                    Bb
Te enrolando tanto tempo
         Gm        C
Mas continuo apaixonado

 Gm
Tô ligando pra dizer
        Bb
Que não vivo sem você
    F                C
É o anjo que Deus me mandou
 Gm
O Beijo se adivinhar
      Bb
Vai ter que acertar
         C
Onde eu estou

          F
Eu tô na igreja!
                      C Dm
Te esperando em cima do altar
                      Bb
Não demore muito pra chegar
                      C
Depressa, tá passando o tempo

          F
Eu tô na igreja!
                     Dm
Convidei, amor, toda cidade
                 Bb
Seja feita nossa vontade
 C              F
Hoje é o nosso casamento

[Solo] F  Dm  Bb  Gm  C  Dm  Gm

   
E|------------------5------5-5-5------------|
B|-----------5-6-8----------------8-6-5-6-6-|
G|------5-7-----------5-5-------------------|
D|-5-7--------------------------------------|
A|------------------------------------------|
E|------------------------------------------|

E|-------------5-6-6-5-6-8-6-5--------------|
B|------5-6-8-------------------6-5-6-6/8---|
G|-5-7--------------------------------------|
D|------------------------------------------|
A|------------------------------------------|
E|------------------------------------------|


 Gm
Tô ligando pra dizer
        Bb
Que não vivo sem você
    F                C
É o anjo que Deus me mandou
 Gm
O Beijo se adivinhar
      Bb
Vai ter que acertar
         C
Onde eu estou

          F
Eu tô na igreja!
                      C Dm
Te esperando em cima do altar
                      Bb
Não demore muito pra chegar
                      C
Depressa, tá passando o tempo

          F
Eu tô na igreja!
                     Dm
Convidei, amor, toda cidade
                 Bb
Seja feita nossa vontade
 C              F
Hoje é o nosso casamento
Acordes para:
    Colaboração e revisão:
    • Rafael Sfalsin
    • Jeferson Freire
    • victor machado

    0 comentários

      mostrar mais comentários

      Conseguiu tocar?

      5tocaram1ainda não

      Grave um vídeo tocando Nosso Casamento e mande pra gente!

      00:00 / 00:00
      outros vídeos desta música
      repetirqualidadeAutomático
      Outro vídeos desta música
        00:00 / 00:00
        OK