Cifra Club

Aprenda

10 Beijos de Rua

Léo Santana

Cifra: Principal (violão e guitarra)
Tom: Am
[Intro] F  G  Am
        F  G  Am

E|-------------------------------------------|
B|-5-5-5-5-6-6/8~----------------------------|
G|-------------------------------------------|
D|-------------------------------------------|
A|-------------------------------------------|
E|-------------------------------------------|

E|-------------------------------------------|
B|-8-8-8--6-6-6--5-5-5--3-3-3--3p1-3/5-------|
G|--------------------------------------2-2--|
D|-------------------------------------------|
A|-------------------------------------------|
E|-------------------------------------------|

E|-------------------------------------------|
B|-8-8-8--6-6-6--5-5-5--3-3-3--3p1-3/5-------|
G|--------------------------------------2-2--|
D|-------------------------------------------|
A|-------------------------------------------|
E|-------------------------------------------|

E|-------------------------------------------|
B|-8-8-8--6-6-6--5-5-5--3-3-3--3p1-3/5-------|
G|--------------------------------------2-2--|
D|-------------------------------------------|
A|-------------------------------------------|
E|-------------------------------------------|

E|------8-7-5-5~-----------------------------|
B|-3/5---------------------------------------|
G|-------------------------------------------|
D|-------------------------------------------|
A|-------------------------------------------|
E|-------------------------------------------|

[Primeira Parte]

    F
Acabou outra vez
       G
Foi cena repetida
      Am                  G
Um tchau com gosto de fica

       F               G
Me chamaram aqui pra sair
                 Am
Nem no clima eu tô
Mas só de raiva eu vou

[Pré-Refrão]

                F
Meu coração nem ia
                   G
Mas só que a teimosia
                        Am
Chegou em mim parou, parou

                             F
Na primeira boca já senti remorso
                    G
Beijando mal de propósito
                 Am
Torcendo pra acabar
O que eu nem devia começar

[Refrão]

              F
10 beijos de rua
     G
Não vale metade do seu
             Am
No canto da boca
Imagina na boca
              F
10 beijos de rua
     G
Não causa efeito
                         Am
De quando me abraça com roupa
Imagina sem roupa

              F
10 beijos de rua
     G
Não vale metade do seu
             Am
No canto da boca
Imagina na boca
              F
10 beijos de rua
     G
Não causa efeito
                         Am
De quando me abraça com roupa
Imagina sem roupa

[Solo] F  G  Am
       F  G  Am

E|-------------------------------------------|
B|-5-5-5-5-6-6/8~----------------------------|
G|-------------------------------------------|
D|-------------------------------------------|
A|-------------------------------------------|
E|-------------------------------------------|

E|-------------------------------------------|
B|-8-8-8--6-6-6--5-5-5--3-3-3--3p1-3/5-------|
G|--------------------------------------2-2--|
D|-------------------------------------------|
A|-------------------------------------------|
E|-------------------------------------------|

E|-------------------------------------------|
B|-8-8-8--6-6-6--5-5-5--3-3-3--3p1-3/5-------|
G|--------------------------------------2-2--|
D|-------------------------------------------|
A|-------------------------------------------|
E|-------------------------------------------|

E|-------------------------------------------|
B|-8-8-8--6-6-6--5-5-5--3-3-3--3p1-3/5-------|
G|--------------------------------------2-2--|
D|-------------------------------------------|
A|-------------------------------------------|
E|-------------------------------------------|

E|------8-7-5-5~-----------------------------|
B|-3/5---------------------------------------|
G|-------------------------------------------|
D|-------------------------------------------|
A|-------------------------------------------|
E|-------------------------------------------|

[Primeira Parte]

    F
Acabou outra vez
       G
Foi cena repetida
      Am
Um tchau com gosto de fica

       F               G
Me chamaram aqui pra sair
                 Am
Nem no clima eu tô
     B5    C5   E5  Am
Mas só de raiva eu vou

[Pré-Refrão]

                F
Meu coração nem ia
                   G
Mas só que a teimosia
                        Am
Chegou em mim parou, parou

                             F
Na primeira boca já senti remorso
                    G
Beijando mal de propósito
                 Am
Torcendo pra acabar
O que eu nem devia começar

[Refrão]

              F
10 beijos de rua
     G
Não vale metade do seu
             Am
No canto da boca
Imagina na boca
              F
10 beijos de rua
     G
Não causa efeito
                         Am
De quando me abraça com roupa
Imagina sem roupa

              F
10 beijos de rua
     G
Não vale metade do seu
             Am
No canto da boca
Imagina na boca
              F
10 beijos de rua
     G
Não causa efeito
                         Am
De quando me abraça com roupa
Imagina sem roupa

              F
10 beijos de rua
     G
Não vale metade do seu
             Am
No canto da boca
Imagina na boca
              F
10 beijos de rua
     G
Não causa efeito
                         Am
De quando me abraça com roupa
Imagina sem roupa

[Final] F  G

E|-------------------------------------------|
B|-5-5-5-5-6-6/8~----------------------------|
G|-------------------------------------------|
D|-------------------------------------------|
A|-------------------------------------------|
E|-------------------------------------------|

E|-------------------------------------------|
B|-8-8-8--6-6-6--5-5-5--3-3-3--3\1-----------|
G|-------------------------------------------|
D|-------------------------------------------|
A|-------------------------------------------|
E|-------------------------------------------|

             Am
Imagina sem roupa
Composição de Elvis Elan / Ricardo Vismarck / Ronael
Colaboração e revisão:
  • Thiago Almeida
27.573 exibições
    • ½ Tom
    • Am
    • Bbm
    • Bm
    • Cm
    • C#m
    • Dm
    • Ebm
    • Em
    • Fm
    • F#m
    • Gm
    • G#m
  • Adicionar à lista

    0 comentários

    Mostrar mais comentários

    Conseguiu tocar?

    6 Tocaram 1 Ainda não

    Grave um vídeo tocando 10 Beijos de Rua e mande pra gente!

    00:00 / 00:00
    outros vídeos desta música
    repetir qualidade Automático
    Outros vídeos desta música
    00:00 / 00:00
    Automático

    Cifra Club Pro

    Aproveite o Cifra Club com benefícios exclusivos e sem anúncios
    7 dias grátis
    Cifra Club Pro
    Aproveite o Cifra Club com benefícios exclusivos e sem anúncios
    7 dias grátis
    OK