Cifra Club

Aprenda

Santinha

Léo Santana

Cifra: Principal (violão e guitarra)
Tom: G
Introdução:

E|---------------------------|
A|-3---3----3---4---4---4----|
G|---1---1----1---1---1---1--| 1ªParte: (Repete 6x) - até os 26 segundo do vídeo
D|----1---1--------1---1-----| 2ªParte: (Repete 4x) - De 57seg a 1min e 12
B|---------------------------| 4ªParte(Final) Repete 
E|---------------------------| 

  |A santinha perdeu o juízo
2x|Tomou uma e já ficou louca
  |Quando bebe ela é um perigo
  |Sai beijando de boca em boca

E|---------------------------|
A|---------------------------|
G|---------------------------| 1ªParte: (De 27 aos 30seg do vídeo)
D|---------------------------| 2ªParte: De 1:13min a 1:16min
B|------2-2--2-2-2~----------|
E|---------------------------|

 Com a garrafa de whisky a santinha desce
 Com a garrafa de tequila a santinha desce

E|-----------------|
A|-6---6-8--6-8----|
G|-----------------| 1ªParte: (De 30 aos 34seg) 
D|--5-5--------6---| 2ªParte: De 1:16min a 1:18min
B|-----------------|
E|-----------------|

 Se acabou a bebida a santinha para(Let's go baby)

E|----------------------------------------------|
A|---6---6-8--6-8-----6-8--6-8-----6-8--6-8-----|
G|----------------------------------------------| 1ªParte: (De 34 aos 40seg)
D|----5-5--------6-6-----------5-5----------6/8-| 2ªParte: 1:20min a 1:26min
B|----------------------------------------------| 3ªParte: Repete 2x - de 1:43min a 1:49min e de 1:50min a 1:57min
E|----------------------------------------------|

 Com a garrafa de whisky a santinha desce
 Com a garrafa de tequila a santinha desce
 Se acabou a bebida a santinha para
 Abastece que ela desce

E|-----------------------------------4-4-4-----------6---|
A|-----------------------------------------3-3-3-6-------|
G|-------------------------------------------------3-----| 1ªParte: (De 41 aos 47seg)
D|-------------------------------------------------------| 2ªParte: De 1:27min a 1:33min
B|--4---4/6-4-4/6-4--4--4/6-4-4/6-4----------------------| 3ªParte: De 1:58min a 2:04min
E|-------------------------------------------------------|

 Dé dé dé dé desce
 Dé dé dé dé desce
 Dé dé dé dé desce


E|-----------6-3-4-4-4-----------6-6-6-----------4-4-4-----------6-6-6-----------|
A|---4-6-4-3-----------3-3-3-6---------4-4-4-6---------3-3-3-6---------4-4-4-6---|
G|-----------------------------3---------------3---------------3-----------------| 1ªParte: (De 48 aos 56seg)
D|-------------------------------------------------------------------------------| 2ªParte: De 1:34min a 1:42min
B|-------------------------------------------------------------------------------| 3ªParte: De 2:05min a 2:13min
E|-------------------------------------------------------------------------------|

 Abastece que ela desce
 Dé dé dé dé desce
 Dé dé dé dé desce
 Dé dé dé dé desce

E|---------------------------------------------|
A|--6--8-6-8-6--6--8-6-8-6--6--8-6-8-6--6-8-6--|
G|------------8-----------8-----------8--------| 3ªParte: (De 2:14min a 2:17min)
D|---------------------------------------------| 
B|---------------------------------------------| 
E|---------------------------------------------|

E|--4-4-4-----------6-----------6-3-4-4-4-----------6-6-6-----------4-4-4-----------6-6-6-----------|
A|--------3-3-3-6-------4-6-4-3-----------3-3-3-6---------4-4-4-6---------3-3-3-6---------4-4-4-6---|
G|----------------3-------------------------------3---------------3---------------3-----------------| 3ªParte: De 2:18min a 2:29min
D|--------------------------------------------------------------------------------------------------| 
B|--------------------------------------------------------------------------------------------------| 
E|--------------------------------------------------------------------------------------------------|
Composição de Leo Santana / Rafinha RSQ
Colaboração e revisão:
  • Mauricio
8.191 exibições
    • ½ Tom
    • A
    • Bb
    • B
    • C
    • Db
    • D
    • Eb
    • E
    • F
    • F#
    • G
    • Ab
  • Adicionar à lista

    0 comentários

    Mostrar mais comentários

    Conseguiu tocar?

    0 Tocaram 0 Ainda não

    Grave um vídeo tocando Santinha e mande pra gente!

    00:00 / 00:00
    outros vídeos desta música
    repetir qualidade Automático
    Outros vídeos desta música
    00:00 / 00:00
    Automático

    Cifra Club Pro

    Aproveite o Cifra Club com benefícios exclusivos e sem anúncios
    7 dias grátis
    Cifra Club Pro
    Aproveite o Cifra Club com benefícios exclusivos e sem anúncios
    7 dias grátis
    OK