Cifra Club

Aprenda

Toma que toma

Léo Santana

Cifra: Principal (violão e guitarra)
Tom: G
[Intro]

E|----------------------------------------------------|
B|----------------------------------------------------|
G|----------------------------------------------------|
D|-5-4-2-4--------------------------------------------|
A|---------22222--------------------------------------|
E|----------------------------------------------------|

E|----------------------------------------------------|
B|----------------------------------------------------|
G|----------------------------------------------------|
D|-5-4-2-4--------------------------------------------|
A|---------33333--------------------------------------|
E|----------------------------------------------------|

E|----------------------------------------------------|
B|----------------------------------------------------|
G|----------------------------------------------------|
D|-5-4-2-4--------------------------------------------|
A|---------22222--------------------------------------|
E|----------------------------------------------------|

E|----------------------------------------------------|
B|----------------------------------------------------|
G|----------------------------------------------------|
D|-5-4-2-4-----5-4-2-4--------------------------------|
A|---------3-----------3------------------------------|
E|----------------------------------------------------|
(3x)

[Passagem]

(Hoje êêeeta)

E|----------------------------------------------------|
B|----------------------------------------------------|
G|-------5h7-5----------------------------------------|
D|-5-4-2----------7-5-7-------------------------------|
A|----------------------------------------------------|
E|----------------------------------------------------|

[Refrão]

(Vai ser só toma toma)

E|----------------------------------------------------|
B|----------------------------------------------------|
G|-44444-7-44444-7-55555-7-55555-7--------------------|
D|----------------------------------------------------|
A|----------------------------------------------------|
E|----------------------------------------------------|

E|----------------------------------------------------|
B|----------------------------------------------------|
G|-44-7-44-7-44-7-44-7-44-7-55-7-55-7-55-7-55-7-55-7--|
D|----------------------------------------------------|
A|----------------------------------------------------|
E|----------------------------------------------------|

E|----------------------------------------------------|
B|----------------------------------------------------|
G|-44444-7-44444-7-55555-7-55555-7--------------------|
D|----------------------------------------------------|
A|----------------------------------------------------|
E|----------------------------------------------------|

E|----------------------------------------------------|
B|----------------------------------------------------|
G|-44-7-44-7-44-7-44-7-44-7-55-7-55-7-55-7-55-7-55-7--|
D|----------------------------------------------------|
A|----------------------------------------------------|
E|----------------------------------------------------|

(faz a batadeira, faz a batadeira...)

E|----------------------------------------------------|
B|----------------------------------------------------|
G|-444-777-444-777-555-777-555-777--------------------|
D|----------------------------------------------------|
A|----------------------------------------------------|
E|----------------------------------------------------|

E|----------------------------------------------------|
B|----------------------------------------------------|
G|-44-7-44-7-44-7-44-7-44-7-55-7-55-7-55-7-55-7-55-7--|
D|----------------------------------------------------|
A|----------------------------------------------------|
E|----------------------------------------------------|

E|----------------------------------------------------|
B|----------------------------------------------------|
G|-44444-7-44444-7-55555-7-55555-7--------------------|
D|----------------------------------------------------|
A|----------------------------------------------------|
E|----------------------------------------------------|
Composição de Rafael Rocha
Colaboração e revisão:
  • Lucas Oliveira
5.671 exibições
    • ½ Tom
    • A
    • Bb
    • B
    • C
    • Db
    • D
    • Eb
    • E
    • F
    • F#
    • G
    • Ab
  • Adicionar à lista

    0 comentários

    Mostrar mais comentários

    Conseguiu tocar?

    0 Tocaram 0 Ainda não

    Grave um vídeo tocando Toma que toma e mande pra gente!

    00:00 / 00:00
    outros vídeos desta música
    repetir qualidade Automático
    Outros vídeos desta música
    00:00 / 00:00
    Automático

    Cifra Club Pro

    Aproveite o Cifra Club com benefícios exclusivos e sem anúncios
    7 dias grátis
    Cifra Club Pro
    Aproveite o Cifra Club com benefícios exclusivos e sem anúncios
    7 dias grátis
    OK