Cifra Club

Aprenda

Pensar En Nada

Leon Gieco

Cifra: Principal (violão e guitarra)
tom: G
[Intro]

E|--------------------------|----------------------------|
B|-------3---3~--3----1--3--|-------3---3~--3------------|
G|----------------0h2-------|-----------------0h2--5--2--|
D|-0-0-0---0----------------|-0-0-0---0------------------|
A|--------------------------|----------------------------|
E|--------------------------|----------------------------|

E|--------------------------|----------------------------|
B|-------3---3~--3----1--3--|-------3---3~--3------------|
G|----------------0h2-------|-----------------0h2--5--2--|
D|-0-0-0---0----------------|-0-0-0---0------------------|
A|--------------------------|----------------------------|
E|--------------------------|----------------------------|

E|--------------------------|----------------------------|
B|-------3---3~--3----1--3--|-------3---3~--3------------|
G|----------------0h2-------|-----------------0h2--5--2--|
D|-0-0-0---0----------------|-0-0-0---0------------------|
A|--------------------------|----------------------------|
E|--------------------------|----------------------------|

E|--------------------------|----------------------------|
B|-------3---3~--3----1--3--|-------3---3~--3------------|
G|----------------0h2-------|-----------------0h2--5--2--|
D|-0-0-0---0----------------|-0-0-0---0------------------|
A|--------------------------|----------------------------|
E|--------------------------|----------------------------|

D9                      F  G      D9                        F  G
Justo ayer me di cuenta,.....que solo es cuestion de plata
D9                              F-G   D9                     G  F
Mientras diez ventanillas cobran,....una sola es la que paga

( D9  F-G   D9 G-F )

D9                      F  G   D9                  F  G
De como piensa la gente,....a veces la diferencia
D9                       F  G  D9                          G  F
Es tan grande que parecen,....seres de alguna otra tierra

( D9  F  G   D9  G  F )

[Solo] A  A  A  A  G  D9  A  G  F  D9   G  F  D9

    A                                  A4             A
Y que me dicen de esa casa sola que se ve desde un avion
  Bb                          A   A4
Quiza en la soledad no haya dolor,
      D9          A         D9         A
De pensar, ohh dolor, de pensar, de pensar
      D9     F   G   D9    G  F  D9    F   G   D9
Oh en nada,  oh  en  nada, uh en nada, oh  en  nada

[Solo] A  G  A    G  F  D9  F  G  D9

   D9                     F  G     D9                  F  G
En la oficina del trabajo,.....llegando el año nuevo
 D9                F  G  D9                  G  F
Todos se pelean por,....ese maldito ascenso

( D  F  G   D  G  F )

D9                        F  G    D9                     F  G
Con la cuota de frustación,....algunos la viven de rosa
D9                       F  G     D9                    G  F
la ciudad se pone grande,.....y cada vez mas peligrosa

( D9  F  G   D9  G  F )

Y que me dicen
Composição de León Gieco
Colaboração e revisão:
  • Marcelo Cabrera
627 exibições
    • ½ Tom
    • A
    • Bb
    • B
    • C
    • Db
    • D
    • Eb
    • E
    • F
    • F#
    • G
    • Ab
  • Adicionar à lista

    0 comentários

    Ver todos os comentários
    00:00 / 00:00
    outros vídeos desta música
    repetir qualidade Automático
    Outros vídeos desta música
    00:00 / 00:00
    Automático

    Cifra Club Pro

    Aproveite o Cifra Club com benefícios exclusivos e sem anúncios
    Cifra Club Pro
    Aproveite o Cifra Club com benefícios exclusivos e sem anúncios
    OK