Cifra Club

Garotos II - O Outro Lado

Leoni

Cifra: Principal
exibições 1.929.453
Tom: G
Intro 2x: G9  D/F#  C9  G/B  A7(4)  A7

Dedilhado Intro 2x:

Parte 1

    G9             D/F#
E|-----x-----x---------x-----x--------------|
B|-3-3-x-3-3-x-3---3-3-x-3-3-x-3------------|
G|-2-2-x-2-2-x-0---2-2-x-2-2-x-0------------|
D|-0-0-x-0-0-x-0---0-0-x-0-0-x-0------------|
A|-----x-----x---------x-----x-0------------|
E|-3---x-3---x-0---2---x-2---x--------------|

Parte 2

    C9    G/B   A7(4)  A7
E|-----x-----x-----x----0-x-----x-----------|
B|-3-3-x--3--x--3--x--2-2-x-2-2-x-0---------|
G|-0-0-x--0--x--0--x--0-0-x-0-0-x-0---------|
D|-2-2-x--0--x--0--x--2---x-2-2-x-0---------|
A|-3---x--2--x--0--x--0---x-0---x-----------|
E|-----x-----x-----x------x-----x-0---------|

Primeira Parte:

G9               D/F#
   Seus olhos e seus olhares
    C9       G/B  A7(4)  A7
Milhares de ten__ta_____ções
G9              D/F#
   Meninas são tão mulheres
       C9       G/B  A7(4)  A7
Seus truques e con__fu_____sões

Dedilhado Primeira Parte:

Parte 1

    G9             D/F#
E|-----x-----x---------x-----x--------------|
B|-3-3-x-3-3-x-3---3-3-x-3-3-x-3------------|
G|-2-2-x-2-2-x-0---2-2-x-2-2-x-0------------|
D|-0-0-x-0-0-x-0---0-0-x-0-0-x-0------------|
A|-----x-----x---------x-----x-0------------|
E|-3---x-3---x-0---2---x-2---x--------------|

Parte 2

    C9    G/B   A7(4)  A7
E|-----x-----x-----x----0-x-----x-----------|
B|-3-3-x--3--x--3--x--2-2-x-2-2-x-0---------|
G|-0-0-x--0--x--0--x--0-0-x-0-0-x-0---------|
D|-2-2-x--0--x--0--x--2---x-2-2-x-0---------|
A|-3---x--2--x--0--x--0---x-0---x-----------|
E|-----x-----x-----x------x-----x-0---------|

Parte 1

    G9             D/F#
E|-----x-----x---------x-----x--------------|
B|-3-3-x-3-3-x-3---3-3-x-3-3-x-3------------|
G|-2-2-x-2-2-x-0---2-2-x-2-2-x-0------------|
D|-0-0-x-0-0-x-0---0-0-x-0-0-x-0------------|
A|-----x-----x---------x-----x-0------------|
E|-3---x-3---x-0---2---x-2---x--------------|

Parte 2 (com variação)

    C9    G/B   A7(4)  A7
E|-----x-----x-----x----0-x-----x-----------|
B|-3-3-x--3--x--3--x--2-2-x-2-2-x-0---------|
G|-0-0-x--0--x--0--x--0-0-x-0-0-x-0---------|
D|-2-2-x--0--x--0--x--2---x-2-2-x-0---------|
A|-3---x--2--x--0--x--0---x-0---x-0---------|
E|-----x-----x-----x------x-----x-----------|

Pré-refrão:

             Bm    Bm7M
Se espalham pelos pelos
 Bm7    E/G#
Boca e cabelo
 Em/G              A7(4)  A7
Peitos e poses e apelos
            Bm    Bm7M
Me agarram pelas pernas
Bm7         E/G#     Em/G
    Certas mulheres como você
          A7(4)       A7
Me levam sempre onde querem

Dedilhado Pré-refrão:

Parte 1

    Bm    Bm7M  Bm7   E/G#
E|-----x---2-x---2-x-----x------------------|
B|-3-3-x-3-3-x-2-2-x-5-5-x-5----------------|
G|-4-4-x-3-3-x-2-2-x-4-4-x-4----------------|
D|-4-4-x-4---x-4---x-2-2-x-2----------------|
A|-2---x-2---x-2---x-----x------------------|
E|-----x-----x-----x-4---x-4----------------|

Parte 2

   Em/G          A7(4)  A7
E|-----x-----x-------x---0-x----------------|
B|-5-5-x-5-5-x-0-3-3-x-2-2-x-0--------------|
G|-4-4-x-4-4-x-0-0-0-x-0-0-x-0--------------|
D|-2-2-x-2-2-x-0-2-2-x-2---x-0--------------|
A|-----x-----x-0-0---x-0---x-0--------------|
E|-3---x-3---x-------x-----x----------------|

Parte 1

    Bm    Bm7M  Bm7   E/G#
E|-----x---2-x---2-x-----x------------------|
B|-3-3-x-3-3-x-2-2-x-5-5-x-5----------------|
G|-4-4-x-3-3-x-2-2-x-4-4-x-4----------------|
D|-4-4-x-4---x-4---x-2-2-x-2----------------|
A|-2---x-2---x-2---x-----x------------------|
E|-----x-----x-----x-4---x-4----------------|

Parte 2 (com variação)

   Em/G           A7(4)   A7
E|-----x-----x----0-0-0--0-0-0-0------------|
B|-5-5-x-5-5-x-0--3-3-3--2-2-2-2------------|
G|-4-4-x-4-4-x-0--0-0-0--0-0-0-0------------|
D|-2-2-x-2-2-x-0--2-2-2--2-2-2-2------------|
A|-----x-----x-0--0-0-0--0-0-0-0------------|
E|-3---x-3---x------------------------------|
                  ↓ ↑ ↓  ↓ ↑ ↓ ↑

Refrão:

G    D/F#        A9
  Garotos não resistem
     B9
Aos seus mistérios
G    D/F#        A9
  Garotos nunca dizem não
G    D/F#      A9
  Garotos como eu
        B9
Sempre tão espertos
 C9           B9   A9
Perto de uma mu__lher
          G9   D/F#
São só garotos
 C9        G/B  A7(4)  A7
Perto de uma   mu____lher
       G9    D/F#  C9  G/B  A7(4)  A7
São só    garotos

Passagem Refrão:

    C9         B9   A9
E|-3-3-3--3-x--2-x--0--0-----0--------------|
B|-3-3-3--3-x--2-x--0----2-----2------------|
G|-5-5-5--5-x--4-x--2------2-----2----------|
D|-5-5-5--5-x--4-x--2-----------------------|
A|-3-3-3--3-x--2-x--0-----------------------|
E|----------x----x--------------------------|
   ↓ ↑ ↓  ↓ ↓  ↓ ↓  ↓              

Segunda Parte:

G9                D/F#
   Seus dentes e seus sorrisos
    C9        G/B  A7(4)  A7
Mastigam meu corpo e    juízo
G9             D/F#
   Devoram os meus sentidos
      C9          G/B  A7(4)  A7
E eu já não me impor__to   comigo

Pré-refrão:

           Bm      Bm7M
Então são mãos e braços
 Bm7     E/G#
Beijos e abraços
 Em/G                 A7(4)  A7
Pele, barriga e seus laços
         Bm
São armadilhas
  Bm7M    Bm    E/G#
E eu não sei o que faço
  Em/G
Aqui de palhaço
    A7(4)      A7
Seguindo seus passos

Refrão:

G    D/F#        A9
  Garotos não resistem
     B9
Aos seus mistérios
G    D/F#        A9
  Garotos nunca dizem não
G    D/F#      A9
  Garotos como eu
        B9
Sempre tão espertos
 C9           B9   A9
Perto de uma mu__lher
          G9   D/F#
São só garotos
 C9        G/B  A7(4)  A7
Perto de uma   mu____lher
       G9    D/F#  C9  G/B  A7(4)  A7
São só    garotos

Pré-refrão:

             Bm    Bm7M
Se espalham pelos pelos
 Bm7    E/G#
Boca e cabelo
 Em/G              A7(4)  A7
Peitos e poses e apelos
            Bm    Bm7M
Me agarram pelas pernas
Bm7         E/G#     Em/G
    Certas mulheres como você
          A7(4)       A7
Me levam sempre onde querem

Refrão:

G    D/F#        A9
  Garotos não resistem
     B9
Aos seus mistérios
G    D/F#        A9
  Garotos nunca dizem não
G    D/F#      A9
  Garotos como eu
        B9
Sempre tão espertos
 C9           B9   A9
Perto de uma mu__lher são só

G    D/F#        A9
  Garotos não resistem
     B9
Aos seus mistérios
G    D/F#        A9
  Garotos nunca dizem não
G    D/F#      A9
  Garotos como eu
        B9
Sempre tão espertos
 C9           B9   A9
Perto de uma mu__lher
          G9   D/F#
São só garotos
 C9        G/B  A7(4)  A7
Perto de uma   mu____lher
       G9    D/F#
São só    garotos
 C9        G/B  A7(4)  A7
Perto de uma   mu____lher
          D
São só garotos

Refrão Final:

Passagem (variação):

    C9         B9   A9
E|-3-3-3--3-x--2-x--0--0-0--0--0------------|
B|-3-3-3--3-x--2-x--0--0-0--0--0------------|
G|-5-5-5--5-x--4-x--2--2-2--2--2------------|
D|-5-5-5--5-x--4-x--2--2-2--2--2------------|
A|-3-3-3--3-x--2-x--0--0-0--0--0------------|
E|----------x----x--------------------------|
   ↓ ↑ ↓  ↓ ↓  ↓ ↓  ↓  ↓ ↓  ↓  ↓       

Final:

Parte 1

    G9             D/F#
E|-----x-----x---------x-----x--------------|
B|-3-3-x-3-3-x-3---3-3-x-3-3-x-3------------|
G|-2-2-x-2-2-x-0---2-2-x-2-2-x-0------------|
D|-0-0-x-0-0-x-0---0-0-x-0-0-x-0------------|
A|-----x-----x---------x-----x-0------------|
E|-3---x-3---x-0---2---x-2---x--------------|

Parte 2

    C9    G/B   A7(4)  A7  D
E|-----x-----x-----x------2-----------------|
B|-3-3-x--3--x--3--x--2---3-----------------|
G|-0-0-x--0--x--0--x--0---2-----------------|
D|-2-2-x--0--x--0--x--2---0-----------------|
A|-3---x--2--x--0--x--0---------------------|
E|-----x-----x-----x------------------------|
Acordes para:
    Colaboração e revisão:

    0 comentários

      mostrar mais comentários
      00:00 / 00:00
      outros vídeos desta música
      repetirqualidadeautomática
      Outro vídeos desta música
        00:00 / 00:00
        automática
        Capítulos
        • Tocando a Música
        • Dicas iniciais / Equipamentos
        • Acordes da música
        • Tocando Introdução
        • Ensinando Introdução Parte 1 de 2
        • Parte 2 de 2
        • Dicas primeira parte
        • Tocando primeira parte
        • Ensinando primeira (parte 1 e 2)
        • Dicas Pré Refrão / Acordes
        • Tocando Pré Refrão
        • Ensinando Pré Refrão (parte 1 de 2)
        • Ensinando Pré Refrão (parte 2 de 2)
        • Dicas Refrão / acordes
        • Tocando Refrão
        • Ensinando ritmo do refrão
        • Passagem Refrão
        • Dicas Refrão final
        • Tocando Refrão final
        • Ensinando Passagem (variação)
        • Ensinando Refrão final (parte 1 de 2)
        • Ensinando Refrão final (parte 2 de 2)
        • Dicas Finais / Encerramento
        • Ficha Técnica
        OK