Cifra Club

Ring of Fire

Lera Lynn

Cifra: Principal (violão e guitarra)
tom: Bb
Intro:
E|-3~~~-------------------------------------3~~------------------------------------------3--
A|------------------------------------------------------------------------------------------
D|------------------------------------------------------------------------------------------
G|----------0-------0-----------------------------------0--------0---------------2b3r2---0--
B|-------3-------3------3---4----1----3~------------3-------3--------3----1~----------------
E|------------------------------------------------------------------------------------------

E|----------------------------------------------------------------------------------3~~---3--|
A|----------------------------------------------------------------------------------------5--|
D|----------------------------------------------------------------------------------------5--|
G|----0-------0------------------------------------0------0----------------2b3r2----0-----3--|                           
B|-3------3------3----4---1----3/8--8~~---------3------3------3----1~---------------------3--|
E|----------------------------------------------------------------------------------------3--|

VERSE

Gm         Cm          Gm
Love is a burnin' thing
             Cm         Gm
And it makes a fiery ring
Gm     Cm      Gm
Bound by wild desire
Gm
I fell into
   Cm     Gm
A ring of fire

CHORUS

Dm             C             Gm
I fell into a burnin' ring of fire
        Dm
I went down, down, down
  C                Gm
And the flames went higher,
Gm
And it burns 

Cm    Gm      Cm   Gm
Ring of fire, ring of fire

INTRO

VERSE

The taste of love is sweet
When hearts like ours meet
I fell for you like a child oh
But the fire went wild

CHORUS


I fell into a burnin' ring of fire
I went down, down, down
But the flames went higher,
And it burns, burns, burns 

Ring of fire, ring of fire

SOLO (INTRO)

BASED ON EDDIE'S ATTIC VERSION
00:00 / 00:00
Outros vídeos desta música
Repetir
Outros vídeos desta música
Composição de June Carter / Merle Kilgore
Colaboração e revisão:
  • Bianca Melatto
181 exibições
    • ½ Tom
    • A
    • Bb
    • B
    • C
    • Db
    • D
    • Eb
    • E
    • F
    • F#
    • G
    • Ab
  • Adicionar à lista

    0 comentários

    Ver todos os comentários

    Entre para oCifra Club PRO

    Tenha acesso a benefícios exclusivos no App e no Site

    • Chega de anúncios

    • Prioridade de compra em lançamentos

    • Mais recursos no app do Afinador

    • Atendimento Prioritário

    • Descontos nos produtos Cifra Club

    • Ajude a produzir mais conteúdo

    00:00 / 00:00

    Cifra Club Pro

    Aproveite o Cifra Club com benefícios exclusivos e sem anúncios
    Cifra Club Pro
    Aproveite o Cifra Club com benefícios exclusivos e sem anúncios
    OK