867-5309

Less Than Jake

tom: C
Standard tuning
tabbed by=*  (ian adamson)

INTRO/MAIN RIFF
--------------------------------------------------
-------7------------------------------------------
--4----7-(3x)--7--------9-------------------------
--4----5-------7-(2x)---9-(3X)--------------------
--2------------5--------7-------------------------

VERSE
--------------------------------------------------
--------------------------------------------------
----------7---------------------------------------
-4--------7-(4x)--7--------9----------------------
-4-(4x)---5-------7-(4x)---9-(4X)-----------------
-2----------------5--------7----------------------
P.M..............................................

---------------------------------------------------
---------------------------------------------------
----------------7----------------------------------
----4--------------7-----7---------9---------------
-------4----5--------------7----------9------------
-2--------------------5--------7-------------------

CHORUS(not sure if its right)
---------------------------------------------------
---------------------------------------------------
---------7-----------------------7------4----------
-4-------7-(3x)--2-------4-------7-(3x)-4-(3x)-----
-4-(3x)--5-------2-(3x)--4-(3x)--5------2----------
-2---------------0-------2-------------------------

i dont know the rest iam not really a big fan of ska. 
i heard this song by aceident cause its a blink182 cover an i think its not bad.
plz email me tell me whatu think and if uve got any cool 
punk tabs plz send them 2 me @ *
Página 1 / 1

Letras e título
Acordes e artista

resetar configurações
OK