Cifra Club

Aprenda

In-dependence Day

Less Than Jake

Tab de baixo: Principal
Já pensou em usar uma coleção de roupas do Cifra Club? Responda as perguntas abaixo e nos ajude nessa missão! →
Tabbed By : identityxcrysis
e-mail: *

Tuning: EADG (Standard)

Intro
G|-----------------------------------|
D|-------------6h7h6-----------------|
A|-7-7-7777-77-------4-2-0-0-0000----|
E|-----------------------------------|

Verse                                          First time   Second time
G|--------------------------------------------|-----------|--------------------|
D|------------------2-2-222-------4--------2--|---0000000-|--------------------|
A|-4-4-4444-44-4444---------2-22-2-22-0-0-0-00|-x---------|--2/555555-2/555555-|
E|--------------------------------------------|-----------|--------------------|

Chorus
G|---------------------------------------------------------------------------------|
D|---------------------------------------------------------------------------------|
A|-------------------0-0-0000-4-2-0---------------------0-0-0000-2/555555-2/555555-|
E|-0-0-000-2-22-2222----------------0-0-0000-2-22-2222-----------------------------|

Verse part II
G|-----------------------|
D|-------0-00-0000-------|
A|----00-----------------|
E|-00--------------------|


Bridge/mini Guitar solo
G|------------------------------------|
D|-2-2222-4444444---------------------|
A|----------------5-5-555-------------|
E|------------------------5-55-5555---|

Bridge
G|----------------------|
D|----------------------|
A|-----------55-x-5-----|
E|-22-x-5-5-------------|

On the last chorus, the slides change to:
G|--------------------------------------------------------------------------|
D|---7-----7----------------------------------------------------------------|
A|-5---5-5---5--------------------------------------------------------------|
E|--------------------------------------------------------------------------|

===============================================================================
Composição de Less than Jake
108 exibições

0 comentários

Ver todos os comentários

Conseguiu tocar?

0 Tocaram 0 Ainda não

Grave um vídeo tocando In-dependence Day e nos envie!

00:00 / 00:00
Outros vídeos desta música
Repetir Qualidade Automático
Outros vídeos desta música
00:00 / 00:00
Automático

Cifra Club Pro

Aproveite o Cifra Club com benefícios exclusivos e sem anúncios
Cifra Club Pro
Aproveite o Cifra Club com benefícios exclusivos e sem anúncios
OK