Nervous In The Alley

Less Than Jake

Composição de: Chris Demakes / Roger Manganelli / Vinnie Fiorello
tom: C
The song is pretty basic. 
Standard tuning. 


Main Ska Riff (every part without distortion)
ska upstrokes
1|-8--8--8--8--8----6-6-6---1-1-1-1-1---3-3-3-|
2|-8--8--8--8--8----6-6-6---1-1-1-1-1---3-3-3-|
3|-9--9--9--9--9----7-7-7---2-2-2-2-2---4-4-4-|
4|-10-10-10-10-10---8-8-8---3-3-3-3-3---5-5-5-|
5|--------------------------------------------|
6|--------------------------------------------|

Chorus
1|---------------------------------------------|
2|---------------------------------------------|
3|---------------------10-10-10-10-12-12-12-12-|
4|-10-10-10-10-8-8-8-8-10-10-10-10-12-12-12-12-|
5|-10-10-10-10-8-8-8-8-8--8--8--8--10-10-10-10-|
6|-8--8--8--8--6-6-6-6-------------------------|

Interlude
1|-----------------------------------|
2|-----------------------------------|
3|-9-9-9-9---------------------------|
4|-9-9-9-9-7-7-7-7-5-3-3-3-3-3-3-3-3-|
5|-7-7-7-7-7-7-7-7-5-3-3-3-3-3-3-3-3-|
6|---------5-5-5-5\3\1-1-1-1-1-1-1-1-|

That's it. Enjoy
Página 1 / 1

Letras e título
Acordes e artista

resetar configurações
OK