Cifra Club

Aprenda

Soundtrack Of My Life

Less Than Jake

Tab de baixo: Principal
Tabbed by: identityxcrysis
Email: *

Tuning: EADG (Standard)

Intro
G|-------------------|
D|---------7-7-777---|
A|-------------------|
E|-5-5-555-----------|

Verse
G|------------------------------------------|---------------------------------|
D|----------------6h7h6---------------------|---------------6h7h6-------------|
A|---------7-77-77-----7-5-5-555-5-4-2-4-55-|---------7-7-77------7--5-5-555--|
E|-5-5-555----------------------------------|-5-5-555-------------------------|

Chorus
G|------------------------------------|---------------------|
D|------------------------------------|---------------------|
A|-0-0-000-2-22-222---------5-55-5555-|---------5-55-5555---|
E|------------------3-3-333-----------|-7-7-777-------------|


Reintro thing
G|-----------------------------------------|
D|---------7-77-7777-----445577-775544-----|
A|--------------------55---------------55--|
E|-5-5-555---------------------------------|

Solos X 2
G|-------------------------------|
D|-------------------------------|
A|-----------5-55-5555--No-bass--|
E|---7-7-777---------------------|

G|----------------------------------------------|
D|----445577-775544-----445577-775544-----------|
A|--00-------------55-00--------------55--------|
E|---------------------------------------555555-|

Chorus with key change
G|--------------------------------------|
D|----------------------775544-44558757-|
A|-2-2-222-4-44-4444--------------------|
E|-------------------5------------------|

End
G|----------------|
D|----------------|
A|-7-5-4-5-77-----|
E|------------7---|

G|---------------------------------------------------------------------------|
D|---------------------------------------------------------------------------|
A|---------------------------------------------------------------------------|
E|---------------------------------------------------------------------------|


| /  slide up
| \  slide down
| h  hammer-on
| p  pull-off
| ~  vibrato
| +  harmonic
| x  Mute note
===============================================================================
Composição de Less than Jake / Shelly Peiken
715 exibições

0 comentários

Ver todos os comentários

Conseguiu tocar?

0 Tocaram 0 Ainda não

Grave um vídeo tocando Soundtrack Of My Life e nos envie!

00:00 / 00:00
outros vídeos desta música
repetir qualidade Automático
Outros vídeos desta música
00:00 / 00:00
Automático

Cifra Club Pro

Aproveite o Cifra Club com benefícios exclusivos e sem anúncios
Cifra Club Pro
Aproveite o Cifra Club com benefícios exclusivos e sem anúncios
OK