Cifra Club

Still Life Franchise

Less Than Jake

Tab de baixo: Principal
Intro/Verse (Ska Part)

G: -------------------------------------------------------|
D: ----4--8--4-----8--------8--------4--------------------|
A: -6-----------6---------6--------6----------------------|
E: ---------------------7--------7------------------------|

Chorus

G: -------------------------|
D: -------------------------|
A: -4(x16)------2(x16)------|
E: -------4(x16)------2(x16-|

Bridge (I'm Gone, I'm Gone, whoahooowoohooo)

G: -------------------|
D: -------------------|
A: -6(x16)-2(x8)------|
E: -------------2(x8)-|

Any questions or corrections email XsoxX@*
Composição de Less than Jake
229 exibições

0 comentários

Ver todos os comentários

Conseguiu tocar?

0 Tocaram 0 Ainda não

Grave um vídeo tocando Still Life Franchise e nos envie!

00:00 / 00:00
Outros vídeos desta música
Repetir Qualidade Automático
Outros vídeos desta música
00:00 / 00:00
Automático

Cifra Club Pro

Aproveite o Cifra Club com benefícios exclusivos e sem anúncios
Cifra Club Pro
Aproveite o Cifra Club com benefícios exclusivos e sem anúncios
OK