The Ghost Of Me And You

Less Than Jake

Tabbed By : Xcrimson_ghostX
e-mail: *

Tuning: standard

Intro
G|---------------------------------|
D|------------676-------------776--|
A|-7-7-77-7-77---7-9-9-99-5-5----9-| x2
E|---------------------------------|

Verse
G|------------------------------|
D|--------------------------7>--|
A|-7>>----4>>----2>>----0>------|
E|------------------------------|
>>= x32   >= x16

verse

Pre-Chorus
G|------------------|----|------------------|
D|------------------|----|---------777777---|
A|-3/4-----6/7-7~~~-|-x3-|-99999999---------|
E|-----4/5----------|----|------------------|

Chorus
G|---------------------|
D|---------44-4-6--7---|
A|-------------------9-|
E|-00--55--------------|

G|----------------------|
D|-----77--44-4-6-9-77--|
A|-77-----------------9-|
E|---------------5------|

G|---------------------------|
D|----6-----6~6-44-4-6-9-77--|
A|-77--7-------------------9-|
E|-------55-----------5------|

G|----------------------------|
D|----6-----6-6-44-4-6--7-----|
A|-77--7------------------9-7-|
E|-------55-------------------|

repeat from verse (2nd time)

intro

Bridge pt 1
G|---------------------------------------------------------------------------------|
D|----66-9--6-767676~-------------------------6~-9/11--9-7676----------------------|
A|-7----7--7-7-------777-55-4--------------7~----------------999-77~-5~-4~---------|
E|----------------------------7---040200~~~----------------------------5--7~-04020-|

Bridge pt 2
G|--------------------------------------------------------------------|
D|----------6-------6-4-4-4-6-------6-------6-------6-4-4-4-6---------|
A|----7-7-7---------------------------7-7-7---------------------------|
E|-0~~--------5-5-5-----------5-5-4-----------5-5-5-----------5---4-0-|

chorus
G|-----------------------|
D|----------44-4-6-9-77--|
A|---------------------9-|
E|-000055555------5------|

G|------------------------|
D|----677-6-44--4-6-9-77--|
A|-77-------------------9-|
E|-----------------5------|

G|-----------------------|
D|---------44-4-6-77-77--|
A|-77------------------9-|
E|-----55----------------|

G|-----------------------|
D|---------44-4-6-77-77--|
A|-77------------------9-|
E|-----55----------------|

intro

Ending
G|-------------------------------|
D|---------------4-4-44-----776--|
A|-7-7-77---------------5-5----4-| x2
E|--------5-5-55-----------------|

G|-------|
D|-------|
A|-7---7-|
E|-------|
| /  slide up
| \  slide down
| h  hammer-on
| p  pull-off
| ~  vibrato
| +  harmonic
| x  Mute note
===============================================================================
Página 1 / 1

Letras e título
Acordes e artista

resetar configurações
OK