Cifra Club

Aprenda

The Science Of Selling Yourself

Less Than Jake

Tab de baixo: Principal
Já pensou em usar uma coleção de roupas do Cifra Club? Responda as perguntas abaixo e nos ajude nessa missão! →
/ = slide para cima
\ = slide para baixo


verso  x5                           verso final
G ------------------------------- |--------------------------------|
D 3-3~--3~7-7~--7\0-0~--0~----2~5~|-3-3~--3~7-7~--7\0-0~--0~-------|
A ------------------------3~3~--- |-------------------------3~3~--3|
E ------------------------------- |--------------------------------|

refrão (Intro)
G ------2---------------2-----------------------------------------|
D 0--0-3--------2-0--0-3--------2--------------25-----------------|
A --------0--0-3----------0--0-3-------05-3--3--------05-3~~~3~~~-|
E --------------------------------3--3------------3--3------------|

refrão
G 3-3~--3~------------------------3-3---3-------------------------
D --------3-3~--3~--------2~--2~3~--------3-3---3---------2~--2~3~
A ----------------3-3---3~--3~--------------------3-3---3~--3~----
E ----------------------------------------------------------------

G 3-3~--3~------------------------3-3~--3~------------------------|
D --------3-3~--2~--------2~--2~3~--------3-3~--3~--------2~--2~5~|
A ----------------3-3~--3~--3~--------------------3-3~--3~--3~----|
E ----------------------------------------------------------------|

verso  x2                             verso (Com notas altas)
G-------------------------------- |---------5-5~--5\----------------
D-3-3~--3~7-7~--7\0-0~--0~----2~5~|-3-3~--3~--------0-0~--0~----2~5~
A-------------------------3~3~--- |-------------------------3~3~----
E-------------------------------- |---------------------------------
verso  (final)
G --------------------------------|
D -3-3~--3~7-7~--7\0-0~--0~-------|
A -------------------------3~3~--3|
E --------------------------------|

refrão (Intro)
G ------2---------------2-----------------------------------------|
D 0--0-3--------2-0--0-3--------2--------------25-----------------|
A --------0--0-3----------0--0-3-------05-3--3---------05-3~~~3~~~|
E --------------------------------3--3------------3--3------------|


refrão
G 3-3~--3~------------------------3-3~--3~------------------------
D --------3-3~--2~--------2~--2~3~--------3-3~--2~--------5~3~2~3~
A ----------------3-3---3~--3~--------------------3-3~--3~--------
E ----------------------------------------------------------------

G 3-3~--3~------------------------3-3~--2~------------------------|
D --------3-3~--2~--------2~--2~3~--------3-3~--2~--------5~3~2~3~|
A ----------------3-3~--3~--3~--------------------3-3~--3~--------|
E ----------------------------------------------------------------|

Ponte
G -----------2~--------------------------3~~~2~3~----5~----------|
D 0~0---0--03—-0~-----------2~-------------------3~3~--3~2~~~2~~~|
A ---------------0~0---0--03—-3~-1~1---1~------------------------|
E ---------------------------------------------------------------|

G -----------2~--------------------------3~~~2~3~5~5~~~5~5~~~5~~~|
D 0~0---0--03—-0~-----------2~-----------------------------------|
A ---------------0~0---0--03—-3~-1~1---1~------------------------|
E ---------------------------------------------------------------|

refrão  (nesse ultimo refrao, as notas sao um pouco diferentes)
G 3-3~--3~------------------------3-3~--3~------------------------
D --------3-3~--2~--------2~--2~3~--------3-3~--3~--------5~3~2~3~
A ----------------3-3---3~--3~--------------------3-3~--3~--------
E ----------------------------------------------------------------

G 3-3~--2~------------------------3-3~--2~------------------------|
D --------3-3~--2~--------2~--2~3~--------3-3~--2~--------2~--5~--|
A ----------------3-3~--3~--3~--------------------3-3~--3~--3~--3~|
E ----------------------------------------------------------------|

verso  x2    (final)               Parte rápida (final)
G---------------------------------|---------532320------------------
D-3-3~--3~7-7~--7\0-0~--0~--------|-3-3~--3~------320-0~------------
A-------------------------1~~~3~~~|-------------------------1~~~3~~~
E-------------------------------- |---------------------------------

Saída (final)
G ---------2~--2~3~-------------------------5~3~2~------------------|
D -3-3~--3~--3~----0-0~--0~---------3-3~--3~------3~0-0~--0~--------|
A -------------------------1~~~~3~~~------------------------1~~~3~~~|
E ------------------------------------------------------------------|
Composição de Vinnie Fiorello
Colaboração e revisão:
  • Fernando Leal
3.241 exibições

0 comentários

Ver todos os comentários

Conseguiu tocar?

0 Tocaram 0 Ainda não

Grave um vídeo tocando The Science Of Selling Yourself e nos envie!

00:00 / 00:00
outros vídeos desta música
repetir qualidade Automático
Outros vídeos desta música
00:00 / 00:00
Automático

Cifra Club Pro

Aproveite o Cifra Club com benefícios exclusivos e sem anúncios
Cifra Club Pro
Aproveite o Cifra Club com benefícios exclusivos e sem anúncios
OK