Cifra Club

Aprenda

I Want You To Want Me

Letters To Cleo

Cifra: Principal (violão e guitarra)
tom: C
Verso:

   C
I want you to want me
  Am
I need you to need me
  F
I'd love you to love me
C
I'm beggin' you to beg me.

Ponte:

      Am                                D
I'll shine up my old brown shoes
     Bb                           C
I'll put on a brand new shirt
      Am                            D
I'll get home early from work
         Bb                    C
if you say that you love me

Refrão:

C                                            G
Didn't, didn't, didn't I see you cryin'
Am                                                F
Oh didn't, didn't, didn't I see you cryin'
                                                                           
C                                                           G
Feelin' all alone without a friend you know you feel like dyin'
Am                                                F
Oh didn't, didn't, didn't I see you cryin'

B|--5-3----5-3----5-3----------|
G|------5------5-------5--5-----|

Verso:

   C
I want you to want me   (fill 1)
  Am
I need you to need me  (fill 1)
  F
I'd love you to love me
C
I'm beggin' you to beg me.

Ponte:

      Am                                D
I'll shine up my old brown shoes
     Bb                           C
I'll put on a brand new shirt
      Am                            D
I'll get home early from work
         Bb                    C
if you say that you love me

Refrão:

C                                            G
Didn't, didn't, didn't I see you cryin'
Am                                                F
Oh didn't, didn't, didn't I see you cryin'
C
   G
Feelin' all alone without a friend you know you feel like dyin'
Am                                                F
Oh didn't, didn't, didn't I see you cryin'  HEY!!!!!!!!!!!!!!!!!


Solo: C  Am

                                                                                       C                                                         G
Feelin' all alone without a friend you know you feel like dyin'
A                                                F
Oh didn't, didn't, didn't I see you cryin'


Solo Parte 2: C  Am

Verso:

   C
I want you to want me (fill)
  Am
I need you to need me (fill)
  F
I'd love you to love me
  C
I'm beggin' you to beg me.

I want you to want me

I want you to want me

-------------------------------------------------------------------------------------------------
intro played with riff 1
E|---------------------------------------------------------|
B|---------------------------------------------------------|
G|----3---------------2-------------x-------x---------6----|
D|----2---------------1-------------5-------7---------5----|
A|----4---------------2-------------5-------7---------7----|
E|----2---------------x-------------3-------5---------5----|

riff 1
E|---------------------------------------------------------------------------------|
B|---------------------------------------------------------------------------------|
G|------7h9---7h9--7p5---7b--7b--5----7h9---7p5------------------------6-----------|
D|----------------------------------------------------------------5-----------7----|
A|---------------------------------------------------------------------------------|
E|---------------------------------------------------------------------------------|

verse 1
------------------------------------------------------------------------------------------|
------------------------------------------------------------------------------------------|
------------------------------------------------------------------------------------------|
--------------------------------------------------------------7-7-7-7-7-7-7-7-------------|
-----7-7-7-7-7-7-7-7--4-4-4-4-4-4-0-0------------5-5-5-5-5-5-4-4--7-7-7-7-7-7-7-7---------|
-----5-5-5-5-5-5-4-4--2-2-2-2-2-2-0-0------------------------------------5-5-5-5-5-5-4-4--|
pm. . . . . . .     . .   . . . . . ..     . . .            . . . . .  . .  . .  . . . . . 

--------------------------------------------------------------------------|
--------------------------------------------------------------------------|
--------------------------------------------------------------------------|
--------------------------------------7-7-7-7-7-7-7-7---------------------|
------4-4-4-4-4-4-0-0-----------5-5-5-5-5-5-4-4----7-7-7-7-7-7-7-7--------|
------2-2-2-2-2-2-0-0------------------------------------5-5-5-5-5-5-5-5--|
pm..............    . . .           . . . .  . . .   . . .   ...............

pre-chorus with riff 2
-------------------------------------------------------------------------------------------------|
-------------------------------------------------------------------------------------------------|
------3-----------2---------x---------x----------3------------2------x-----------------------x---|
------2-----------1---------5---------7----------2------------1------5-----------------------4---|
------4-----------2---------5---------7----------4------------2------5-----------------------4---|
------2-----------x---------3---------5----------2------------x------3-----------------------2---|

riff 2
-------------------------------------------------------------------------------------|
-------------------------------------------------------------------------------------|
-------12h14-----12h14-----12~~---12---11~~---11---10~~---10--9~~--9-9/12~~---12-11~~|
-------------------------------------------------------------------------------------|
-------------------------------------------------------------------------------------|
-------------------------------------------------------------------------------------|

---------------------------------|
---------------------------------|
-------11---10-------------9~~---|
---------------------------------|
---------------------------------|
---------------------------------|

chorus : play riffs 3,4,and5 alternately
------------------------------------------------------------------------------------------------|
-----------------------------------------------------------------------------------7-7-7-7-7-7--|
-----------------------------------------------------------------------------------5-5-5-5-5-5--|
---2-4--2-4--2-4--2-4--------------------------------------------------------7-7-7-7-7-7--------|
---0-0--0-0--0-0--0-0-------2-4--2-4--2-4--2-4----4-4-4-4-4-4-----5-5-5-5-5-5-------------------|
----------------------------------0-0--0-0--0-0--0-0----2-2-2-2-2-2-----------------------------|
pm...........................................................................

riff 3
-------------------7-----------6-------5--------4------|
-------------------------------------------------------|
--------------/7----------6--------5--------4----------|
-------------------------------------------------------|
-------------------------------------------------------|
-------------------------------------------------------|

riff 4
-------------------------------------------------------|
-------------------------------------------------------|
-----7b----7b----7h9----7p5-----7b--7b------5~~--------|
-------------------------------------------------------|
-------------------------------------------------------|
-------------------------------------------------------|

riff 5
---------------5-------------7---------/9--------------|
-------------------------------------------------------|
---------/5------------/7------------------------------|
-------------------------------------------------------|
-------------------------------------------------------|
-------------------------------------------------------|

second verse riff 6
---------------------------------------------------------------|
---------------------------------------------------------------|
------5~~-------------7h9---7p5---7h9---7p5---7h9---7p5---5~~--|
---------------------------------------------------------------|
---------------------------------------------------------------|
---------------------------------------------------------------|

---------------------------------------------------------------|
---------------------------------------------------------------|
--7h9---7p5---7h9---7p5---7h9---7p5---5~~---4~~---3~~----------|
---------------------------------------------------------------|
---------------------------------------------------------------|
---------------------------------------------------------------|

1st solo
---------------15-------------15-----------15-----------15-----------15----------15------------15--|
--15h17----------15h17-------15h17------15h17------15h17------15h17-----15h17----------------------|
---------------------------------------------------------------------------------------------------|
---------------------------------------------------------------------------------------------------|
---------------------------------------------------------------------------------------------------|
---------------------------------------------------------------------------------------------------|

-------------15------------------------------------------------------------------------------------|
--15h17--------15--13~~--------------------12~~----------------------------------------------------|
-------------------------------------14h16-------------------14p12------12-----14p12------12-------|
--------------------------------------------------------------------------14--------------------14-|
---------------------------------------------------------------------------------------------------|
---------------------------------------------------------------------------------------------------|

---------------------------------------------------------------------------------------------------|
---------------------------------------------------------------------------------------------------|
----12h14------------------------------------------------------------------------------------------|
------------------12h14------------12-------12h14--------------------------------------------------|
-----------------------------14---------------------------14---12\10----12p10----------------------|
--------------------------------------------------------------------------------------------12--10\|

2nd solo
---------------------------------------------------------------------------------------------------|
------------------12-------------12-----------12----------12--------------12-------------12----12--|
----14h16-----------14h16-----14h16------14h16------14h16---------14h16-------14h16----------------|
---------------------------------------------------------------------------------------------------|
---------------------------------------------------------------------------------------------------|
---------------------------------------------------------------------------------------------------|

------------------------------------------12--12---14---14---14---14-----------12------14----------|
-------------12---------15b---15b---12--12---14---14---14---14-------------------------------------|
14h16--------14p12-----------------12--12---14---14---14---14---\12-----------/14------------------|
---------------------------------------------------------------------------------------------------|
---------------------------------------------------------------------------------------------------|
---------------------------------------------------------------------------------------------------|

--------15---17------------------|
--------15---17------------------|
---------------------------------|
---------------------------------|
---------------------------------|
---------------------------------|

3rd verse: riff 7
-----------------------------------------------------------------|
-----------------------------------------------------------------|
-----19h21---19p17----19h21---19p17---19h21---19p17-----17~~-----|
-----------------------------------------------------------------|
-----------------------------------------------------------------|
-----------------------------------------------------------------|

---------------------------------------------------------------------------------------------------|
--------------------------------------------------------------------20h22--20~~---20--20--19-------|
---19h21--19p17--19h21--19p17--19h21--19p17--------------------------------------------------------|
---------------------------------------------------------------------------------------------------|
---------------------------------------------------------------------------------------------------|
---------------------------------------------------------------------------------------------------|

---20h22---20~~------------------------------------------------------------------------------------|
---------------------------------------------------------------------------------------------------|
---------------------------------------19b---19b---17~~--------------------------------------------|
---------------------------------------------------------------------------------------------------|
---------------------------------------------------------------------------------------------------|
---------------------------------------------------------------------------------------------------|

3rd verse riff 8
--------------5---5---5-----5\----------|
--------------5---5---5-----5\----------|
--------------7---7---7-----7\----------|
----------------------------------------|
----------------------------------------|
----------------------------------------|

Composição de Rick Nielsen
Colaboração e revisão:
11.942 exibições
    • ½ Tom
    • A
    • Bb
    • B
    • C
    • Db
    • D
    • Eb
    • E
    • F
    • F#
    • G
    • Ab
  • Adicionar à lista

    0 comentários

    Ver todos os comentários

    Conseguiu tocar?

    0 Tocaram 0 Ainda não

    Grave um vídeo tocando I Want You To Want Me e nos envie!

    00:00 / 00:00
    outros vídeos desta música
    repetir qualidade Automático
    Outros vídeos desta música
    00:00 / 00:00
    Automático

    Cifra Club Pro

    Aproveite o Cifra Club com benefícios exclusivos e sem anúncios
    Cifra Club Pro
    Aproveite o Cifra Club com benefícios exclusivos e sem anúncios
    OK