Cifra Club

Veda Very Shining

Letters To Cleo

Cifra: Principal (violão e guitarra)
tom: B
Intro 

 D   G#   (x4)

Verse 

 A   E   G   F#   Bm   E

Chorus 

 F#m   B   E   A
 F#m   B   E   E
 F#m   B   E   A
 F#m   B

Bridge 

 B   F#  A   G#  C#m  F#

Interlude 

 F#m  D   B  C#
 F#m  D   B  D   A

Solo 1 

|---------------------------------------|
|---------------------------------------|
|---------------------------------------|
|---------------------------------------|
|--2--9--5--11--9--6--6--7--4--4--7--4--|
|---------------------------------------|

Solo 2 

|------------------------------------|
|------------------------------------|
|--9--5--11--9--6--6--7--4--4--7--4--|
|------------------------------------|
|------------------------------------|
|------------------------------------|

Last Verse 

   A*          A2*         G*
|--------------------------------------|
|--------------------------------------|
|--------------------------------------|
|--------7-----------6-----------5-----|
|-----7-----7-----7-----7-----5-----5--|
|--5-----------4-----------3-----------|

--------------------------------------------------------------------------------

Arrangement 

Intro   [no vocals]
Verse   
Verse
Chorus
Bridge/Solo 1   [no vocals]
Verse
Verse
Chorus
Verse/Solo 2    [no vocals]
Interlude
Last Verse
Chorus


--------------------------------------------------------------------------------

Lyrics & Chords 

  [Intro]


A        E        G         F#    Bm
that was my heart when time was a seed

                E
tell me what it means

           A     E       G       F#        Bm
we made it out o-kay but soon it turned to dust

                E
tell me what it means




F#m                     B
     cut it out and get off the floor

E                     A               F#m
     cause it doesn't make you matter more

     B
veda very shining

E                    F#m
who will you wait up for

          B  
life love heaven death

E               A                F#m
   is that what makes you such a mess

     B
veda very shining


  [Bridge/Solo 1]


A      E        G      F#       Bm
at the well and out of luck you said

          E
"i've had enough"

              A        E      G       F#    Bm
but still you couldn't make a man out of me     

                     E
is that such a bad disease



F#m                     B
     cut 
00:00 / 00:00
Outros vídeos desta música
Repetir
Outros vídeos desta música
Composição de Greg McKenna / Kay Hanley / Letters to Cleo / Michael Eisenstein / Scott Riebling / Tom Polce
Colaboração e revisão:
  • Gabriela Andrade
1.437 exibições
    • ½ Tom
    • A
    • Bb
    • B
    • C
    • Db
    • D
    • Eb
    • E
    • F
    • F#
    • G
    • Ab
  • Adicionar à lista

    0 comentários

    Ver todos os comentários

    Conseguiu tocar?

    0 Tocaram 0 Ainda não

    Grave um vídeo tocando Veda Very Shining e nos envie!

    Entre para oCifra Club PRO

    Tenha acesso a benefícios exclusivos no App e no Site

    • Chega de anúncios

    • Prioridade de compra em lançamentos

    • Mais recursos no app do Afinador

    • Atendimento Prioritário

    • Descontos nos produtos Cifra Club

    • Ajude a produzir mais conteúdo

    00:00 / 00:00

    Cifra Club Pro

    Aproveite o Cifra Club com benefícios exclusivos e sem anúncios
    Cifra Club Pro
    Aproveite o Cifra Club com benefícios exclusivos e sem anúncios
    OK