Someone You Loved

Lewis Capaldi

Composição de: Benjamin Kohn / Chris Daughtry / Lewis Capaldi / Pete Kelleher / Samuel Roman / Tom Barnes
tom: Db (forma dos acordes no tom de C ) Capotraste na 1ª casa
[Intro] C  G  Am  F

[TAB - Intro]

Parte 1 de 2
   C                 G
E|-0---0---0---0----------------------------|
B|-1---1---1---1-----0---0---0---0----------|
G|---0---0---0---0---0---0---0---0----------|
D|---------------------0---0---0---0--------|
A|-3----------------------------------------|
E|-------------------3----------------------|

Parte 2 de 2
   Am                F
E|------------------------------------------|
B|-1---1---1---1----------------------------|
G|-2---2---2---2-----2---2---2---2----------|
D|---2---2---2---2---3---3---3---3----------|
A|-0-------------------3---3---3---3--------|
E|-------------------1----------------------|

[Primeira Parte]

C                           G
  I'm going under and this time 
                          Am   F
I fear there's no one to save me
C                             G
  This all or nothing really got a way 
                Am  F
Of driving me crazy

[Pré-Refrão]

                    C
I need somebody to heal
              G
Somebody to know
             Am                F
Somebody to have, somebody to hold
              C
It's easy to say 
                    G
But it's never the same
                 Am
I guess I kinda liked the way 
                    F
You numbed all the pain

[Refrão]

              C               G
Now the day bleeds into nightfall
                Am
And you're not here 
                     F
To get me through it all
                C
I let my guard down 
                         G
And then you pulled the rug
      
I was getting kinda 
Am                         F
Used to being someone you loved

[Segunda Parte]

C                           G
  I'm going under and this time 
                          Am   F
I fear there's no one to turn to

C                             G
  This all or nothing way of loving 
                    Am      F
Got me sleeping without you

[Pré-Refrão]

                          C
Now, I need somebody to know
             G
Somebody to heal
             Am
Somebody to have
                     F
Just to know how it feels
              C
It's easy to say 
                    G
But it's never the same
                 Am       
I guess I kinda liked the way 
                 F
You helped me escape

[Refrão]

              C               G
Now the day bleeds into nightfall
                Am
And you're not here 
                     F
To get me through it all
                C
I let my guard down 
                         G
And then you pulled the rug
     
I was getting kinda 
Am                         F
Used to being someone you loved

[Terceira Parte]

[TAB - Terceira Parte]

Parte 1 de 4
   Dm                Am    
E|-1---1---1---1----------------------------|
B|-3---3---3---3-----1---1---1---1----------|
G|---2---2---2---2---2---2---2---2----------|
D|-0-------------------2---2---2---2--------|
A|-------------------0----------------------|
E|------------------------------------------|

Parte 2 de 4
   G                          Am
E|------------------------------------------|
B|-0---0---0---0----0---0-----1----1--------|
G|-0---0---0---0----0---0-----2----2--------|
D|---0---0---0---0----0---0------2---2------|
A|----------------------------0-------------|
E|-3----------------3-----------------------|

Parte 3 de 4
  Dm                Am    
E|-1---1---1---1----------------------------|
B|-3---3---3---3-----1---1---1---1----------|
G|---2---2---2---2---2---2---2---2----------|
D|-0-------------------2---2---2---2--------|
A|-------------------0----------------------|
E|------------------------------------------|

Parte 4 de 4
   G                          
E|------------------------------------------|
B|-0---0---0---0----0-----------------------|
G|-0---0---0---0----0-----------------------|
D|---0---0---0---0--------------------------|
A|------------------------------------------|
E|-3----------------3-----------------------|

    Dm          Am
And I tend to close my eyes 
         G
When it hurts sometimes
          Am     Dm
I fall into your arms
         Am 
I'll be safe in your sound 'til 
   G
I come back around

[Refrão Final]

[TAB - Refrão final]

Parte 1 de 7
    C   G   Am  F   C   G
E|-0---------------0------------------------|
B|-1---0---1---1---1---0--------------------|
G|-0---0---2---2---0---0--------------------|
D|-----0---2---3-------0--------------------|
A|-3-------0-------3------------------------|
E|-----3-------1-------3--------------------|

Parte 2 de 7
   Am                F
E|------------------------------------------|
B|-1---1---1---1----------------------------|
G|-2---2---2---2-----2---2---2---2----------|
D|---2---2---2---2---3---3---3---3----------|
A|-0-------------------3---3---3---3--------|
E|-------------------1----------------------|

Parte 3 de 7
   C                 G
E|-0---0---0---0----------------------------|
B|-1---1---1---1-----0---0---0---0----------|
G|---0---0---0---0---0---0---0---0----------|
D|---------------------0---0---0---0--------|
A|-3----------------------------------------|
E|-------------------3----------------------|

Parte 4 de 7
   Am                F
E|------------------------------------------|
B|-1---1---1---1----------------------------|
G|-2---2---2---2-----2---2---2---2----------|
D|---2---2---2---2---3---3---3---3----------|
A|-0-------------------3---3---3---3--------|
E|-------------------1----------------------|

Parte 5 de 7
   C                 G
E|-0---0---0---0----------------------------|
B|-1---1---1---1-----0---0---0---0----------|
G|---0---0---0---0---0---0---0---0----------|
D|---------------------0---0---0---0--------|
A|-3----------------------------------------|
E|-------------------3----------------------|

Parte 6 de 7
   Am                F
E|------------------------------------------|
B|-1---1---1---1----------------------------|
G|-2---2---2---2-----2---2---2---2----------|
D|---2---2---2---2---3---3---3---3----------|
A|-0-------------------3---3---3---3--------|
E|-------------------1----------------------|

Parte 7 de 7
   C   G   Am  F   C/G
E|-0---------------0------------------------|
B|-1---0---1---1---1------------------------|
G|-0---0---2---2---0------------------------|
D|-----0---2---3---2------------------------|
A|-3-------0-------3------------------------|
E|-----3-------1---3------------------------|
                   ↓

                  C               G
For now the day bleeds into nightfall
                Am
And you're not here 
                     F
To get me through it all
                C
I let my guard down 
                         G
And then you pulled the rug
 
I was getting kinda 
Am                         F
Used to being someone you loved

                  C               G
But now the day bleeds into nightfall
                Am
And you're not here 
                     F
To get me through it all
                C
I let my guard down 
                         G
And then you pulled the rug

I was getting kinda 
Am                         F
Used to being someone you loved
                C
I let my guard down 
                         G
And then you pulled the rug

I was getting kinda 
Am                         F    C/G
Used to being someone you loved
Página 1 / 1

Letras e título
Acordes e artista

resetar configurações
OK