Cifra Club

Aprenda

Bola Pra Frente

Lex Skate Rock

Cifra: Principal (violão e guitarra)
tom: G
[Intro]  Db D D9 D G

     Db  D  D9  D     G
E|--1/2--h2--2-----3------------------------|
B|--2/3--3---3-----3------------------------|
G|--1/2--2---2------------------------------|
D|------------------------------------------|
A|----------------2-------------------------|
E|-----------------3------------------------|

     D
Muito antes
      G
Minha alegria era só por uma noite
       Em
Meu coração não dava ouvidos
A palavra que hoje ouve
G
Não tava nem ai
Eu fazia o que fosse

D
Mas nem sempre se faz aquilo que diz querer
G
Nem sempre se quer aquilo que tem que fazer
Em
Sei que tudo me é lícito
Mas nem tudo convém
G
Não dou lugar a carne
Faça isso você também

D                      D9       D
Pois eu tenho um manual e é ele que eu sigo
G
Nem mais, nem menos, nele já está tudo escrito
Em
Porque eu dependo disso, sem isso eu não vivo
G
A palavra de Deus não é apenas só um livro

D
É simplesmente Deus querendo falar com você
G                                       C9
Entregue sua vida deixa ele resolver

D
A tua palavra me mudou
G
Aquele que eu era hoje já não sou
Em
Eu to diferente, mudou minha mente
Bola frente junto com você

[Solo]

E|--------------------------------------------------|
B|----0---0---0---0---------------------------------|
G|---0---0---0---0----------------------------------|
D|--6---4---2---0-------0---------------------------|
A|------------------0p2-----------------------------|
E|--------------------------------------------------|

D
A tua palavra me mudou
G
Aquele que eu era hoje já não sou
Em                                  G
Eu to diferente, mudou minha mente, bola pra frente
                    Db D D9 D G
Junto com você eu vou
G                   Em
E junto com você eu vou

[Solo]

E|--------------------------------------------------|
B|----0---0---0---0---------------------------------|
G|---0---0---0---0----------------------------------|
D|--6---4---2---0-------0---------------------------|
A|------------------0p2-----------------------------|
E|--------------------------------------------------|

D
Antes
   G
Minha alegria era só por uma noite
Em
Meu coração não dava ouvidos
A palavra que hoje houve
G
Não tava nem ai
Eu fazia o que fosse

D
Mas nem sempre se faz aquilo que diz querer
G
Nem sempre se quer aquilo que tem que fazer
Em
Sei que tudo me é lícito
Mas nem tudo convém
G
Não dou lugar a carne
Faça isso você também

D                      D9       D
Pois eu tenho um manual e é ele que eu sigo
G
Nem mais, nem menos, nele já está tudo escrito
Em
Porque eu dependo disso, sem isso eu não vivo
G
A palavra de Deus não é apenas só um livro

D
É simplesmente Deus querendo falar com você
G                                    C9
Entregue sua vida deixa Ele resolver

D
A tua palavra me mudou
G
Aquele que eu era hoje já não sou
Em                                   (SOLO)
Eu to diferente, mudou minha mente, bola pra frente 
Junto com você

[Solo]

E|--------------------------------------------------|
B|----0---0---0---0---------------------------------|
G|---0---0---0---0----------------------------------|
D|--6---4---2---0-------0---------------------------|
A|------------------0p2-----------------------------|
E|--------------------------------------------------|

D
A tua palavra me mudou
G
Aquele que eu era hoje já não sou
Em                                  G
Eu to diferente, mudou minha mente, bola pra frente
                   Db D D9 D G
Junto com você eu vou
G                Em
Junto com você eu vou
                    G
E junto com voçê eu vou
E junto com voçê

D
Tua presença o que eu mais quero ela é real
G
É onde eu mais quero estar
Em
Amor assim nunca encontrei igual
G
Contigo eu vou a qualquer lugar
D
Por onde eu for eu quero estar com você
G
Por onde eu for eu quero estar com você
Em                                       G
Por onde eu for eu quero estar com você

D
A tua palavra me mudou
G
Aquele que eu era hoje já não sou
Em                                 G
Eu to diferente, mudou minha mente, bola frente
Junto com você eu vou

D
A tua palavra me mudou
G
Aquele que eu era hoje já não sou
Em                                   G
Eu to diferente, mudou minha mente, bola frente
                    Db D D9 D G
Junto com você eu vooou
                    Em
Junto com você eu vou
D                                  G
Até a eternidade, não sei se você sabe
Em
Ele vai ta com a gente,ele vai com a

(SOLO)                  D
Isso vai ser pra sempre

[Solo]

E|--------------------------------------------------|
B|----0---0---0---0---------------------------------|
G|---0---0---0---0----------------------------------|
D|--6---4---2---0-------0---------------------------|
A|------------------0p2-----------------------------|
E|--------------------------------------------------|
Composição de Lex Skate Rock
Colaboração e revisão:
  • Ronan OLiveira
  • Helton Silva
13.506 exibições
    • ½ Tom
    • A
    • Bb
    • B
    • C
    • Db
    • D
    • Eb
    • E
    • F
    • F#
    • G
    • Ab
  • Adicionar à lista

    0 comentários

    Ver todos os comentários

    Conseguiu tocar?

    0 Tocaram 2 Ainda não

    Grave um vídeo tocando Bola Pra Frente e nos envie!

    00:00 / 00:00
    outros vídeos desta música
    repetir qualidade Automático
    Outros vídeos desta música
    00:00 / 00:00
    Automático

    Cifra Club Pro

    Aproveite o Cifra Club com benefícios exclusivos e sem anúncios
    Cifra Club Pro
    Aproveite o Cifra Club com benefícios exclusivos e sem anúncios
    OK