Cifra Club

Aprenda

Ter Você

Lex Skate Rock

Cifra: Principal (violão e guitarra)
tom: E
Intro: E5  B5  C#m5  A

 1°parte     
            E5                      B5                      C#m5                  A

E|-----------------------|----------------------|-----------------------|-------------------|
B|--------9---9-10---12--|----------------------|-----------------------|-------------------|
G|---\9-9---9------9-----|-----8---8-9-11-------|--------9----8h9p8-----|------9---9---9~---|   2x
D|-----------------------|---9---9--------9-11--|--11-11---11-------11--|--7-7---7---7------|
A|-----------------------|----------------------|-----------------------|-------------------|
E|-----------------------|----------------------|-----------------------|-------------------|

 2° Parte
       
            E5                      B5                      C#m5                  A

E|----------------------|----------------------|------------------------|-------------------|
B|----------------------|----------------------|------------------------|-------------------|
G|--------9h11-9--------|------9h11-9----------|-------9h11-9-----------|-------------------|
D|---\9-9----------9----|--9-9-----------9-----|--\9-9----------9\10----|--10-10-10-10-9-7--|
A|----------------------|----------------------|------------------------|-------------------|
E|----------------------|----------------------|----------------7\8-----|--8--8--8--8--7-5--|

E|---------12h14-12-----|--------12h14-12------|---------12h14-12-------|-------------------|
B|--\12-12-----------12-|--12-12-----------12--|--\12-12-----------12/13|--13-13-13-13-12-10|
G|----------------------|----------------------|------------------------|-------------------|
D|----------------------|----------------------|-------------------9/10-|--10-10-10-10--9--7|
A|----------------------|----------------------|------------------------|-------------------|
E|----------------------|----------------------|------------------------|-------------------|
 

E5              B5
Ter Você é mais do que sombra e água fresca
C#5             A5
Num dia de sol fervendo a minha cabeça
E5             B5
Ter Você é mais do que um milhão no bolso
C#5                   A5
Contigo o pouco e muito, mas sem Ti o muito é pouco
E5                B5
Ter Você é mais do que um carro importado
C#5               A5
Ferrari, jaguar, Audi ou BMW
E5              B5
Ter Você é mais do que uma linda mulher
C#5                A5
Ter você é tanto louco quem não Te quiser

Refrão:
    E5       B5       D5      A5
Então, ter Você é mais do que tudo que eu conheço
    E5      B5     D5        A5
Sei que ninguém jamais pagaria um auto preço
E5       B5    D5        A5
Morreu numa cruz dando a vida por mim
      E5   B5     D5        A5
E o seu nome é Jesus to contigo até o fim
 
         E5                 B5               C#m5                G5

E|-----------------|-----------------|-------------------|-------------------|
B|-----------------|-----------------|-------------------|-------------------|
G|--9-9-9----------|-----------------|-------------------|--12-12-12-12/11/9-|
D|---------6h7p6---|--9-9-9--6h7p6---|--11-11-11--6h7p6--|-------------------|  2x
A|--7-7-7----------|-----------------|-------------------|--10-10-10-10/9/7--|
E|-----------------|--7-7-7----------|--9--9--9----------|-------------------|

E5              B5
Ter Você é mais do que sombra e água fresca
C#5             A5
Num dia de sol fervendo a minha cabeça
E5             B5
Ter Você é mais do que um milhão no bolso
C#5                   A5
Contigo o pouco e muito, mas sem Ti o muito é pouco
E5                B5
Ter Você é mais do que um carro importado
C#5              A5
Que livra do sufoco daquele busão lotado
E5              B5
Ter Você é mais do que uma linda mulher
C#5                A5
Ter você é tanto louco quem não Te quiser

Refrão:

    E5       B5       D5      A5
Então, ter Você é mais do que tudo que eu conheço
    E5      B5     D5        A5
Sei que ninguém jamais pagaria um auto preço
E5       B5    D5        A5
Morreu numa cruz dando a vida por mim
      E5   B5     D5        A5
E o seu nome é Jesus to contigo até o fim

( C#5  C5  B5  Bb5  A5  B5  Bb5  B5  C#5  D#5  E5 )

(Refrão 2x)

( E )
Composição de Lex (vocalista)
Colaboração e revisão:
15.388 exibições
    • ½ Tom
    • A
    • Bb
    • B
    • C
    • Db
    • D
    • Eb
    • E
    • F
    • F#
    • G
    • Ab
  • Adicionar à lista

    0 comentários

    Ver todos os comentários

    Conseguiu tocar?

    3 Tocaram 0 Ainda não

    Grave um vídeo tocando Ter Você e nos envie!

    00:00 / 00:00
    outros vídeos desta música
    repetir qualidade Automático
    Outros vídeos desta música
    00:00 / 00:00
    Automático

    Cifra Club Pro

    Aproveite o Cifra Club com benefícios exclusivos e sem anúncios
    Cifra Club Pro
    Aproveite o Cifra Club com benefícios exclusivos e sem anúncios
    OK