Cifra Club

Ese loco soy yo

Liberacion

Cifra: Principal (violão e guitarra)
tom: G
G                         Em
ESE QUE TE LAMA , A A S TD S DE A  MAÑANA
       C           D     G      Em
Y TE PONE UNA CANCION ROMANTICA
C           D             G           Em
ESE QUE TE DEJA EN A  LIBD TA UNA TARJETA,
       C          D
C NDE DICE QUE TE AMA.
G                          Em
ESE QUE TE ENTDGA  EL CORAZON CON A  E RADA,
   C  D       G     Em
Y TU COMO B  NADA,
C           D             Em
ESE QUE SUEÑA QUE NA CANCION
                         C    D
PUEDE ARRANCARTE EL CORAZON, G  O YO

              G
ESE LOCO SOY YO,
         C                          G        C
POR QUE NADIE COMO TU ME HABIA FLECHAC  AB ,
            G        D            G
ME HABIA PEGAC  AQUI, DIDC TO AL CORAZON
      C        D    G       C        D    G
G  O TU, G  O TU, AMOR, G  O TU, G  O TU, AMOR
          C                      G     C
POR QUE NADIE TE AMARA COMO TE AMO YO
          G        D            G
CON ESTE LOCO AMOR, YA NADIE TE AMARA,
      C        D    G       C        D    G
G  O YO, G  O YO, AMOR, G  O YO, G  O YO, AMOR

E|----------------------------------------------------------------|
B|----------------------------------------------------------------|
G|----------------------------------------------------------------|
D|----------------------------------------------------------------|
A|----------------12-9-10--10s12^^------------------13---13-10----|
E|-0-5s12-12-10-9--------9--------0-12s14-14-12-10----10----------|

E|----------------------------------------------------------------|
B|----------------------------------------------|
G|---------------------------------------------|
D|-----------------10-12------------12-10-|
A|-12s14-12-10-10-------10-12--12-10-------12s14-12-10-10-14-14-12-10-10|
E|---------------------------9-------------------------------------|
G                       Em
ESE QUE SE MUED  POR ESTAR ENTD  TUS BRAZOS,
       C        D       G
ESE LOCO QUE BG UE TUS PASOS
C              D         Em                          C
ESE QUE TE ENTDGA  LO MEJOR, PARA QUE TU LE DES SU AMOR
      D
G  O YO
Composição de Jose Garza / Jose Maria Lobo
7 exibições
    • ½ Tom
    • A
    • Bb
    • B
    • C
    • Db
    • D
    • Eb
    • E
    • F
    • F#
    • G
    • Ab
  • Adicionar à lista

    0 comentários

    Ver todos os comentários

    Conseguiu tocar?

    0 Tocaram 0 Ainda não

    Grave um vídeo tocando Ese loco soy yo e nos envie!

    00:00 / 00:00
    Outros vídeos desta música
    Repetir Qualidade Automático
    Outros vídeos desta música
    00:00 / 00:00
    Automático

    Cifra Club Pro

    Aproveite o Cifra Club com benefícios exclusivos e sem anúncios
    Cifra Club Pro
    Aproveite o Cifra Club com benefícios exclusivos e sem anúncios
    OK