Cifra Club

Lo mejor de tí

Liberacion

Cifra: Principal (violão e guitarra)
tom: Eb


E|---------------11-8-6-6-8-6-----------11-8-6-6-8-6-----------------------|
B|--------9/11-11------------9-8-9/11-11------------9-8--8-6--6----6-6/8-6-|
G|-----7-8-------------------------------------------------------8---------|
D|-8-10--------------------------------------------------------------------|
A|-------------------------------------------------------------------------|

  Eb
Amor
                 Gm
me dijiste te espero
                 Ab
en el lugar de siempre
              Bb
a la cita de hoy


  Eb
Amor
               Gm
no me lo imaginaba
                   Ab
que hoy seria diferente
                    F
que hoy venias decidida
        Bb
a entregarme tu amor, tu amor


    Eb           Cm
Me diste lo mejor de ti
                 Ab   Fm
en cada beso tu vida
             Bb
y la tome para mi


  Eb                    Cm
Amor como el que hoy vivimos
             Ab    Fm
sera para nosotros
         Bb
para ti y para mi

E|---------------11-8-6-6-8-6-----------11-8-6-6-8-6-----------------------|
B|--------9/11-11------------9-8-9/11-11------------9-8--8-6--6----6-6/8-6-|
G|-----7-8-------------------------------------------------------8---------|
D|-8-10--------------------------------------------------------------------|
A|-------------------------------------------------------------------------|


Amor
te haz quedado dormida
tu mejilla encendida
con un ligero rubor

Amor
es hora de marcharnos
hay un gesto de placer
porque ya eres mujer
Compositor não encontrado.
    • ½ Tom
    • A
    • Bb
    • B
    • C
    • Db
    • D
    • Eb
    • E
    • F
    • F#
    • G
    • Ab
  • Adicionar à lista

    0 comentários

    Ver todos os comentários

    Conseguiu tocar?

    0 Tocaram 0 Ainda não

    Grave um vídeo tocando Lo mejor de tí e nos envie!

    00:00 / 00:00
    Outros vídeos desta música
    Repetir Qualidade Automático
    Outros vídeos desta música
    00:00 / 00:00
    Automático

    Cifra Club Pro

    Aproveite o Cifra Club com benefícios exclusivos e sem anúncios
    Cifra Club Pro
    Aproveite o Cifra Club com benefícios exclusivos e sem anúncios
    OK