Cifra Club

Aprenda

Whatever It Takes

Lifehouse

Tab de baixo: Principal
(intro)
Gb|------------------------------------------------------------------|
Db|------------------------------------------------------------------|
Ab|------------------------------------------------------------------|
Eb|-4/14-14-14-14----14h16-16-16\4~~~/14-14-14-14----14h16-16-16\4~~~|

|-----------------------------------------------------------------|
|-----------------------------------------------------------------|
|-----------------------------------------------------------------|
|-/14-14-14-14----14h16-16-16-16----14-14-14-14----14h16-16-16-16-|

|------------------------------------------------------|
|------------------------------------------------------|
|------------------------------------------------------|
|-12h14-16p14-14-14-14-14----14h16-16-16-16----14/16\4-|

|------------------------------------------------|
|------------------------------------------------|
|------------------------------------------------|
|1/8-11~-10-11-10-11/15----1~-4-6-9-8~~~-8-8-8-8-|

|-----------------------------------------------------------------|
|-----------------------------------------------------------------|
|-4-4-4-4-4-4-4-4-----------------1-1-1-1-1-1-1-1-----------------|
|-----------------4-4-4-4-4-4-4-4-----------------2-2-2-2-2-2-2-2-|

|-----------------------------------------------------------------|
|-----------------------------------------------------------------|
|-4-4-4-4-4-4-4-4-----------------1-1-1-1-1-1-1-1-----------------|
|-----------------4-4-4-4-4-4-4-4-----------------2-2-2-2-2-2-2-2~|

|---------------------------------------------------------------|
|---------------------------------------------------------------|
|---------------------------------------------------------------|
|-/16-16-16\4~~~/14-14-14-14----14h16-16-16\4~~~/14-14-14-14----|

|----------------------------------------------------------------|
|----------------------------------------------------------------|
|----------------------------------------------------------------|
|-14h16-16-16-16----14-14-14-14----14h16-16-16-16----12h14-16p14-|

|------------------------------------------|
|------------------------------------------|
|------------------------------------------|
|-14-14-14-14----14h16-16-16-16----14h16\4-|

|------------------------------------------------|
|------------------------------------------------|
|------------------------------------------------|
|1/8-11~-10-11-10-11/15----1~-4-6-9-8~~~-8-8-8-8-|

|-----------------------------------------------------------------|
|-----------------------------------------------------------------|
|-4-4-4-4-4-4-4-4-----------------1-1-1-1-1-1-1-1-----------------|
|-----------------4-4-4-4-4-4-4-4-----------------2-2-2-2-2-2-2-2-|

|-----------------------------------------------------------------|
|-----------------------------------------------------------------|
|-4-4-4-4-4-4-4-4-----------------1-1-1-1-1-1-1-1-----------------|
|-----------------4-4-4-4-4-4-4-4-----------------2-2-2-2-2-2-2-2~|

                               (3x)
| |----------------------------| |
|o|----------------------------|o|
|o|-9-9-9-9-9-9-9-9h11-11-xx-6~|o|
| |----------------------------| |

|---------------------------|
|---------------------------|
|-6-6-6-6-6-6-6-6-9-9-9-9-9-|
|---------------------------|

(pausa)

|------------------------------------------------------|
|------------------------------------------------------|
|-4-4-4-4-4-4-4-4-----------------1-1-1-1-1-1-1-1------|
|-----------------4-4-4-4-4-4-4-4-----------------2-~~~|

|------------------------------------|
|------------------------------------|
|------------------------------------|
|-14~~11~~--16\9~~--14~~11~~--16\9~~-|
Composição de Jason Wade / Jude Cole
Colaboração e revisão:
  • Paulo Ricardo
321 exibições

0 comentários

Ver todos os comentários

Conseguiu tocar?

0 Tocaram 0 Ainda não

Grave um vídeo tocando Whatever It Takes e nos envie!

00:00 / 00:00
outros vídeos desta música
repetir qualidade Automático
Outros vídeos desta música
00:00 / 00:00
Automático

Cifra Club Pro

Aproveite o Cifra Club com benefícios exclusivos e sem anúncios
Cifra Club Pro
Aproveite o Cifra Club com benefícios exclusivos e sem anúncios
OK