Cifra Club

Aprenda

Guiding The North Star

Light This City

Cifra: Principal (violão e guitarra)
tom: E
---------------------------------------------------------------|
---------------------------------------------------------------|
---------------------------------------------------------------|
---------------6--7--------------------7--6--------------------|
4--------------7--9--0---------2-------9--7--------------------|
4-444-444-44---------0-000-000-2-222---------------------------| repeat twice

------------------------------------------------------|
------------------------------------------------------|
-6---6---4---2---6---6---7---4------------------------|
-7---7---6---4---7---7---9---6------------------------|
------------------------------------------------------|
--000-000-000-000-000-000-000-------------------------| X 2

dont include|------------------------repeat 4 X-------------------------|
-------|----------------------------------------------------------------|
-------|------6-4--------------------------------------------6-4--------|
-------|------7-6-6-7--------------------6-7-----------------7-6-6-7----|
0-----2|----------7-9----4---4---4---4---7-9-0---------2---------7-9----|
0-----2|-------------444-444-444-444-444-----0-000-000-2-222------------|

------------repeat twice--------------------------------------------------|
--------------------------------------------------------------------------|
----------------------------------7--------------------------4------------|
-4-----7----6----6----7-----6-7h9---7--6

Composição de Benny Murray / Laura Nichol
205 exibições
    • ½ Tom
    • A
    • Bb
    • B
    • C
    • Db
    • D
    • Eb
    • E
    • F
    • F#
    • G
    • Ab
  • Adicionar à lista

    0 comentários

    Ver todos os comentários

    Conseguiu tocar?

    0 Tocaram 0 Ainda não

    Grave um vídeo tocando Guiding The North Star e nos envie!

    00:00 / 00:00
    outros vídeos desta música
    repetir qualidade Automático
    Outros vídeos desta música
    00:00 / 00:00
    Automático

    Cifra Club Pro

    Aproveite o Cifra Club com benefícios exclusivos e sem anúncios
    Cifra Club Pro
    Aproveite o Cifra Club com benefícios exclusivos e sem anúncios
    OK