Cifra Club

Aprenda

Old Town Road (feat. Billy Ray Cyrus)

Lil Nas X

Cifra: Completa (violão e guitarra)
Tom: A
[Intro 2x]

   A       C9      G5      F6(9)
E|------------------------------------------|
B|-2---2---3---3---3---3---3---3------------|
G|------------------------------------------|
D|------------------------------------------|
A|-0---0---3---3----------------------------|
E|-----------------3---3---1---1------------|

[Refrão]
                 A
Yeah, I'm gonna take my horse
       C9
To the old town road I'm gonna
G5              F6(9)
   Ride 'til I can't no more
           A
I'm gonna take my horse
       C9
To the old town road I'm gonna
G5              F6(9)
   Ride 'til I can't no more


[Dedilhado Refrão 2x]

   A       C9      G5      F6(9)
E|------------------------------------------|
B|-2---2---3---3---3---3---3---3------------|
G|------------------------------------------|
D|------------------------------------------|
A|-0-0-0-0-3-3-3-3--------------------------|
E|-----------------3-3-3-3-1-1-1-1----------|


[Primeira Parte]

           A
I got the horses in the back
 C9
Horse tack is attached
 G5
Hat is matte black
         F6(9)
Got the boots that's black to match

 A
Ridin' on a horse, ha
 C9
You can whip your Porsche
G5
I been in the valley
           F6(9)
You ain't been up off that porch, now

 A                    C9
Can't nobody tell me nothin'
G5                    F6(9)
   You can't tell me nothin'
 A                    C9
Can't nobody tell me nothin'
G5                    F6(9)
   You can't tell me nothin'

 A
Ridin' on a tractor
 C9
Lean all in my bladder
 G5
Cheated on my baby
 F6(9)
You can go and ask her

 A
My life is a movie

 C9
Bull ridin' and boobies
 G5
Cowboy hat from Gucci
  F6(9)
Wrangler on my booty

 A                    C9
Can't nobody tell me nothin'
G5                    F6(9)
   You can't tell me nothin'
 A                    C9
Can't nobody tell me nothin'
G5                    F6(9)
   You can't tell me nothin''

[Refrão]

                 A
Yeah, I'm gonna take my horse
       C9
To the old town road I'm gonna
G5              F6(9)
   Ride 'til I can't no more
           A
I'm gonna take my horse
       C9
To the old town road I'm gonna
G5              F6(9)
   Ride 'til I can't no more

[Segunda Parte]

 A
Hat down, cross town
 C9
Livin' like a rockstar
  G5
Spent a lot of money 
        F6(9)
On my brand new guitar

 A
Baby's got a habit 
         C9
Diamond rings and Fendi sports bras
 G5
Ridin' down Rodeo in my 
 F6(9)
Maserati sports car

 A
Got no stress
             C9
I've been through all that I'm like a
 G5                F6(9)
Marlboro Man so I kick on back


              A
Wish I could roll on back
        C9
To that old town road I wanna
G5              F6(9)
   Ride 'til I can't no more

[Refrão]

                 A
Yeah, I'm gonna take my horse
       C9
To the old town road I'm gonna
G5              F6(9)
   Ride 'til I can't no more
           A
I'm gonna take my horse
       C9
To the old town road I'm gonna
G5              F6(9)
   Ride 'til I can't no more


[Intro]

   A       C9      G5      F6(9)
E|------------------------------------------|
B|-2---2---3---3---3---3---3---3------------|
G|------------------------------------------|
D|------------------------------------------|
A|-0---0---3---3----------------------------|
E|-----------------3---3---1---1------------|

[Dedilhado Refrão]

   A       C9      G5      F6(9)
E|------------------------------------------|
B|-2---2---3---3---3---3---3---3------------|
G|------------------------------------------|
D|------------------------------------------|
A|-0-0-0-0-3-3-3-3--------------------------|
E|-----------------3-3-3-3-1-1-1-1----------|
Composição de Lil Nas X
Colaboração e revisão:
  • Leandro Sandim
4.303 exibições
  • Simplificar cifra
    • ½ Tom
    • A
    • Bb
    • B
    • C
    • Db
    • D
    • Eb
    • E
    • F
    • F#
    • G
    • Ab
  • Adicionar à lista

    0 comentários

    Mostrar mais comentários

    Conseguiu tocar?

    11 Tocaram 1 Ainda não

    Grave um vídeo tocando Old Town Road (feat. Billy Ray Cyrus) e mande pra gente!

    00:00 / 00:00
    outros vídeos desta música
    repetir qualidade Automático
    Outros vídeos desta música
    00:00 / 00:00
    Automático
    Capítulos
    • Tocando a Música
    • Apresentação / Equipamentos
    • Afinação
    • Acordes da Música
    • Tocando Introdução - Refrão
    • Ensinando Introdução
    • Ensinando Dedilhado Refrão
    • Tocando Primeira Parte
    • Ritmo da Música
    • Dicas Segunda Parte
    • Tocando Segunda Parte
    • Encerramento
    OK