Cifra Club

Prayer In C

Lilly Wood And The Prick

Cifra: Principal (violão e guitarra)
tom: C
        Am            C            G
E|--5---x-5-7-8-x--5----x---------------x------|
B|------x-------x----5--x-5-6p5-5p3--3--x------|
G|------x-------x-------x---------------x------|
D|------x-------x-------x---------------x------|
A|--0---x-0-0-0-x--0-3--x-3-3---3-------x------|
E|------x-------x-------x------------3--x------|

                 Dm
E|---------x----1--x--1-3p1-1------------------|
B|--3-5-6--x--3----x---------------------------|
G|---------x-------x---------------------------|
D|---------x----0--x--0-0---x------------------|
A|---------x-------x--------x------------------|
E|--3-3-3--x--3----x--------x------------------|


Am                    C
Ya, you never said a word
                      G
You didn't send me no letter
                    Dm
Don't think I could forgive you

Am                      C
See our world is slowly dying
                           G
And I'm no wasting no more time
                    Dm
Don't think I could believe you

Am                           C
Ya, our hands will get more wrinkle
                      G
And I hear it will be grey
                    Dm
Don't think I could forgive you

Am                       C
And see the children are starving
                    G
And their houses were destroy
                       Dm
Don't think they could forgive you

Am                        C
Hey, when seas will cover lands
                        G
And when men will be no more
                    Dm
Don't think you can forgive you

Am                      C
Yeah, when there's just be silence
                      G
And when life will be over
                     Dm
Don't think you will forgive you
00:00 / 00:00
Outros vídeos desta música
Repetir
Outros vídeos desta música
Composição de Benjamin Cotto / Nili Hadida
Colaboração e revisão:
76.275 exibições
    • ½ Tom
    • A
    • Bb
    • B
    • C
    • Db
    • D
    • Eb
    • E
    • F
    • F#
    • G
    • Ab
  • Adicionar à lista

    0 comentários

    Ver todos os comentários

    Conseguiu tocar?

    35 Tocaram 4 Ainda não

    Grave um vídeo tocando Prayer In C e nos envie!

    Entre para oCifra Club PRO

    Tenha acesso a benefícios exclusivos no App e no Site

    • Chega de anúncios

    • Prioridade de compra em lançamentos

    • Mais recursos no app do Afinador

    • Atendimento Prioritário

    • Descontos nos produtos Cifra Club

    • Ajude a produzir mais conteúdo

    00:00 / 00:00

    Cifra Club Pro

    Aproveite o Cifra Club com benefícios exclusivos e sem anúncios
    Cifra Club Pro
    Aproveite o Cifra Club com benefícios exclusivos e sem anúncios
    OK