Cifra Club

Behind Blue Eyes

Limp Bizkit

Cifra: Principal (violão e guitarra)
Tom: G
Intro: Em  G6  D5(9)  C9  A5(9)
   Em                G6
E|----------0-----------------0------------
B|------------0------------------3---------
G|-------0------0-----------0------0-------
D|-----2----------0-------0----------0-----
A|---2------------------2------------------
E|-0----------------3----------------------

   D5(9)
E|--------0---------------0----------------
B|-----3----3---3------3----3---3----------
G|---2--2-----2------2--2-----2------------
D|-0--------------0------------------------
A|-----------------------------------------
E|-----------------------------------------

   C9
E|---------0---------------0---------------
B|-----3-----3---3-----3-----3---3---------
G|---0---0-----0-----0---0-----0-----------
D|-----------------------------------------
A|-3--------------3------------------------
E|-----------------------------------------

   A5(9)
E|--------0----------------0---------------
B|----0-----0---0------0-----0---0---------
G|------2-----2----------2-----2-----------
D|---2---------------2---------------------
A|-0--------------0------------------------
E|-----------------------------------------

Verso 1:
 Em                     G6              D5(9)
No one knows what it's like, to be the bad man,
           C9         A5(9)
To be the sad man, behind blue eyes
 Em                     G6         D5(9)
No one knows what it's like to be hated,
       C9               A5(9)
To be fated, to telling only lies
Dedilhado das Estrofes:
   Em                G6
E|----------0-----------------0------------
B|------------0------------------3---------
G|-------0------0-----------0------0-------
D|-----2----------0-------0----------0-----
A|---2------------------2------------------
E|-0----------------3----------------------

   D5(9)
E|--------0---------------0----------------
B|-----3----3---3------3----3---3----------
G|---2--2-----2------2--2-----2------------
D|-0--------------0------------------------
A|-----------------------------------------
E|-----------------------------------------

   C9
E|---------0---------------0---------------
B|-----3-----3---3-----3-----3-------------
G|---0---0-----0-----0---0------0----------
D|-----------------------------------------
A|-3--------------3------------------------
E|-----------------------------------------

Refrão:
         C   D                G
But my dreams, they aren't as empty,
       C          D        E  E4 E E4 E
As my conscience seems to be
        Bm          C9
I have hours, only lonely
            D                       A5(9)
My love is vengeance that's never free

Verso 2:
 Em                     G6                  D5(9)
No one knows what it's like to feel these feelings
        C9              A5(9)
Like I do, and I blame you
 Em                   G6           D5(9)
No one bites back as hard on their anger
            C9                       A5(9)
None of my pain and woe, can show through

Refrão:
         C   D                G
But my dreams, they aren't as empty,
       C          D        E  E4 E E4 E
As my conscience seems to be
        Bm          C9
I have hours, only lonely
            D                       A5(9)
My love is vengeance that's never free

( Em  G6  D5(9)  C9  A5(9) )

Verso 3:
 Em                    G               D5(9)
No one knows what its like, to be mistreated,
         C9        A5(9)
To be defeated, behind blue eyes
 Em                 G                 D5(9)
No one know how to say, that they're sorry
           C9                A5(9)
And don't worry, I'm not telling lies

Refrão:
         C   D                G
But my dreams, they aren't as empty,
       C          D        E  E4 E E4 E
As my conscience seems to be
        Bm          C9
I have hours, only lonely
            D                       A5(9)
My love is vengeance that's never free

Final:
 Em                     G6              D5(9)
No one knows what it's like, to be the bad man,
           C9         A5(9)
To be the sad man, behind blue eyes
exibições 805.418
Acordes para:
    Composição: Pete Townshend Colaboração e revisão:

    0 comentários

    mostrar mais comentários

    Conseguiu tocar?

    224 tocaram 5 ainda não

    Grave um vídeo tocando Behind Blue Eyes e mande pra gente!

    00:00 / 00:00
    outros vídeos desta música
    repetir qualidade Automático
    Outros vídeos desta música
    00:00 / 00:00
    Automático
    Capítulos
    • Início
    • Tocando a música
    • Acordes da Introdução - Estrofes
    • Tocando Introdução - Estrofe
    • Ensinando dedilhado Introdução (Parte 1)
    • Ensinando dedilhado Introdução (Parte 2)
    • Ensinando dedilhado Introdução (Parte 3 e 4)
    • Ensinando dedilhado Estrofes
    • Ensinando ritmo Estrofes
    • Acordes do Refrão
    • Tocando Refrão
    • Ensinando Refrão
    • Encerramento
    OK