Cifra Club

Gold Cobra

Limp Bizkit

Tab de baixo: Principal
Intro
B|-2-2----

Verses
G|--------------------------------|
D|--------------------------------|
A|--------------------------------|
E|--------------------------------|
B|-2-2----2---2----2-2----5---5---|

then Intro stuff again
Chorus
G|----------------------------|
D|----------------------------|
A|----------------------------|
E|-----------------------5-5--|
B|-2-2---2-/5-5---3-3---------|

Break
G|-----18----18----18----18----18-----|
D|-16----16----16----16----16----16---|
A|---------16----16----16----16-------|
E|------------------------------------|
B|------------------------------------|

G|-----16----16----16----16----16---|
D|---16----16----16----16----16-----|
A|-14----14----14----14----14-------|
E|----------------------------------|
B|----------------------------------|

G|-----14----14----14----14----14---|
D|---14----14----14----14----14-----|
A|-12----12----12----12----12-------| (x2)
E|----------------------------------|
B|----------------------------------|

G|-----18----18----18----18----18-----|
D|-16----16----16----16----16----16---|
A|---------16----16----16----16-------|
E|------------------------------------|
B|------------------------------------|

G|-----16----16----16----16----16---|
D|---16----16----16----16----16-----|
A|-14----14----14----14----14-------|
E|----------------------------------|
B|----------------------------------|

G|----------------------------------
D|----------------------------------
A|----------------------------------
E|----------------------------------
B|-10101010101010101010101010101010-

-----------------------------------|
-----------------------------------|
-----------------------------------|
-----------------------------------|
-1010101010101010-1212121212121212-|

Outro
B|-2-2----
00:00 / 00:00
Outros vídeos desta música
Repetir
Outros vídeos desta música
Composição de Fred Durst / Limp Bizkit
Colaboração e revisão:
  • Pedro Rodrigues
184 exibições

0 comentários

Ver todos os comentários

Conseguiu tocar?

0 Tocaram 0 Ainda não

Grave um vídeo tocando Gold Cobra e nos envie!

Entre para oCifra Club PRO

Tenha acesso a benefícios exclusivos no App e no Site

  • Chega de anúncios

  • Prioridade de compra em lançamentos

  • Mais recursos no app do Afinador

  • Atendimento Prioritário

  • Descontos nos produtos Cifra Club

  • Ajude a produzir mais conteúdo

00:00 / 00:00

Cifra Club Pro

Aproveite o Cifra Club com benefícios exclusivos e sem anúncios
Cifra Club Pro
Aproveite o Cifra Club com benefícios exclusivos e sem anúncios
OK