It'll Be Ok

Limp Bizkit

Composição de: Limp Bizkit
tom: G
E|----------------------------------------------------------------------------|
B|-------------------------------------------------------3---3---3---3/2---2--|
G|--------0---------------0--------------4*--4---4---4------------------------|
D|----4-------4-------4-------4-----------------------------------------------|
A|----------------------------------------------------------------------------|
E|-0--------------0-----------------3-----------------------------------------|

E|-----------------------------------------------------------------------------------|
B|---------8-------8-----------8-------8------------11--------11----------11------11-|
G|-----9-------9-----------9-------9-----------12--------12-----------12------12-----|
D|-----------------------------------------------------------------------------------|
A|-7------------------7-------------------10----------------------10-----------------|
E|-----------------------------------------------------------------------------------|

E|-----------------------------------------------------------------------------------|
B|---------8-------8-----------8-------8------------11--------11----------11---13----|
G|-----9-------9-----------9-------9-----------12--------12-----------12-------------|
D|-----------------------------------------------------------------------------------|
A|-7------------------7-------------------10----------------------10-----------------|
E|-----------------------------------------------------------------------------------|

E|--------------------------------------|
B|--------------------------------------|
G|--------------------------------------|
D|--------2---0-------------------------|
A|-2--2----------------2---2----1-------|
E|-0--0-----------3----0---0----3-------|

E|----------------------------------------------------------12--17--19--22--|
B|----------------------------------------------12--15--14------------------|
G|--------------------------------------------------------------------------|
D|---------13------13---14--13/14--13--13-----------------------------------|
A|--------------------------------------------------------------------------|
E|-12--12------12---------------------------15------------------------------|

E|--------------------------------------------------------------|
B|--------------------------------------------------------------|
G|-------13---------13-----16-16-16-16-16-16/17-16-16-16-16-----|
D|--------------------------------------------------------------|
A|-------11---------11-----14-14-14-14-14-16/19-18-18-18-18-----|
E|-0-0-0----0-0-0-0----0-0--------------------------------------|

Página 1 / 1

Letras e título
Acordes e artista

resetar configurações
OK