Lonely World

Limp Bizkit

Composição de: Fred Durst
tom: G
Intro - Bass

Verse (with delay)

E|------------------------------------------------|
B|-7-9-10-9-7-9-----7-9-10-9-7-9-----7-9-10-9-7-9-|
G|------------------------------------------------|
D|------------------------------------------------|
A|------------------------------------------------|
E|------------------------------------------------|

Chorus (played very softly, with delay)

E|---------------------------------------------|
B|---------------------------------------------|
G|---------------------------------------------|
D|---------------------------------------------|
A|-4-6-7-6-4-6-----4-6-7-6-4-6-----4-6-7-6-4-6-|
E|---------------------------------------------|

Interlude Part 1

E|-------|
B|-------|
G|-------|
D|-------|
A|-4~~~--|
E|-------|

Part 2 (same as verse)

E|------------------------------------------------|
B|-7-9-10-9-7-9-----7-9-10-9-7-9-----7-9-10-9-7-9-|
G|------------------------------------------------|
D|------------------------------------------------|
A|------------------------------------------------|
E|------------------------------------------------|

Outro (same as verse)

E|------------------------------------------------|
B|-7-9-10-9-7-9-----7-9-10-9-7-9-----7-9-10-9-7-9-|
G|------------------------------------------------|
D|------------------------------------------------|
A|------------------------------------------------|
E|------------------------------------------------|

End On:

E|-------|
B|-------|
G|-------|
D|-------|
A|-4~~~--|
E|-------|
Página 1 / 1

Letras e título
Acordes e artista

resetar configurações
OK