Cifra Club

Aprenda

Take a Look Around

Limp Bizkit

Tab de baixo: Principal
Tab 100% correta !
AFINAÇÃO:
E-B-Gb-Db

[Intro]
At the first part of the intro the bass doesn't play. Then:
 E ------14--7---9--|----------------|
 B -----------------|4---7-----------|
Gb 9---12---5---7---|--------5---7---|
Db -----------------|----------------|


[Verse]
 E --------------------------------------------------------|
 B 4444444444444477777777777777------------------------9977|
Gb ----------------------------555555555555557777777777----|
Db --------------------------------------------------------|

 E --------------------------------------------------------|x3
 B 4444444444444477777777777777--------------------99997777|
Gb ----------------------------55555555559999777777--------|
Db --------------------------------------------------------|

 E ----------------|
 B 4---7-----------|
Gb --------5---7---|
Db ----------------|

 E --------------------------------------------------------|x2
 B 4444444444444477777777777777--------------------99997777|
Gb ----------------------------55555555559999777777--------|
Db --------------------------------------------------------|


[Pre-Chorus]
 E ----------------------------|
 B 7--------7--------7-7------7|
Gb ----------------------------|
Db ----------------------------|


[Chorus]
 E ----------------------------------------|x2
 B ----------------------------------------|
Gb ----------------0h2---------------------|
Db 0h2-0h2-0h2-0h2-----0h2-0h2-0h2-0h2-0h1-|

 E ----------------------------------------|x2
 B ----------------------------------------|
Gb ----------------0-2---------------------|
Db 0-2-0-2-0-2-0-2-----0-2-0-2-0-2-0-2-0-1-|


[Verse]
 E --------------------------------------------------------|
 B 4444444444444477777777777777----------------------------|
Gb ----------------------------5555555555555577777777777777|
Db --------------------------------------------------------|

 E --------------------------------------------------------|
 B 4444444444444477777777777777------------------------9977|
Gb ----------------------------555555555555557777777777----|
Db --------------------------------------------------------|

 E --------------------------------------------------------|x3
 B 4444444444444477777777777777--------------------99997777|
Gb ----------------------------55555555559999777777--------|
Db --------------------------------------------------------|


[Pre-Chorus]
 E ----------------------------|
 B 7--------7--------7-7------7|
Gb ----------------------------|
Db ----------------------------|


[Chorus]
 E ----------------------------------------|x2
 B ----------------------------------------|
Gb ----------------0h2---------------------|
Db 0h2-0h2-0h2-0h2-----0h2-0h2-0h2-0h2-0h1-|

 E ----------------------------------------|x2
 B ----------------------------------------|
Gb ----------------0-2---------------------|
Db 0-2-0-2-0-2-0-2-----0-2-0-2-0-2-0-2-0-1-|
 

[Bridge]
 E ----------------|x13
 B ----------------|
Gb ----0-2---------|
Db 2-2-----2-2-0-1-|

 E ----------------|
 B ----------------|
Gb ----0-2---------|
Db 2-2-----2-------|


[Chorus]
 E ----------------------------------------|x2
 B ----------------------------------------|
Gb ----------------0h2---------------------|
Db 0h2-0h2-0h2-0h2-----0h2-0h2-0h2-0h2-0h1-|

 E ----------------------------------------|x2
 B ----------------------------------------|
Gb ----------------0-2---------------------|
Db 0-2-0-2-0-2-0-2-----0-2-0-2-0-2-0-2-0-1-|


[Outro]
 E --------------------------------------------------------|
 B 4444444444444477777777777777------------------------9977|
Gb ----------------------------555555555555557777777777----|
Db --------------------------------------------------------|

 E --------------------------------------------------------|
 B 4444444444444477777777777777--------------------99997777|
Gb ----------------------------55555555559999777777--------|
Db --------------------------------------------------------|

 E --------------------------------------------------------|
 B 4444444444444477777777777777--------------------99997777|
Gb ----------------------------55555555555555777777--------|
Db --------------------------------------------------------|

 E --------------|
 B 44444444444444|
Gb --------------|
Db --------------|
Composição de Limp Bizkit
Colaboração e revisão:
  • Gabriel Leite
7.857 exibições

0 comentários

Ver todos os comentários

Conseguiu tocar?

2 Tocaram 1 Ainda não

Grave um vídeo tocando Take a Look Around e nos envie!

00:00 / 00:00
Outros vídeos desta música
Repetir Qualidade Automático
Outros vídeos desta música
00:00 / 00:00
Automático

Cifra Club Pro

Aproveite o Cifra Club com benefícios exclusivos e sem anúncios
Cifra Club Pro
Aproveite o Cifra Club com benefícios exclusivos e sem anúncios
OK